Kings Of Leon - Milk Chords & Tabs

 

Milk Chords & Tabs

Kings Of Leon Chords & Tabs

Version: 1 Type: Tab 0 ratings
1 star 2 stars 3 stars 4 stars 5 stars
comments

Milk Tab

   
#----------------------------------PLEASE NOTE---------------------------------#
#This file is the author's own work and represents their interpretation of the #
#song. You may only use this file for private study, scholarship, or research. #
#------------------------------------------------------------------------------#

Group/Singer Name:      Kings Of Leon
Song:                   "Milk"
Additional Info:        Aha Shake Heartbreak - Track 05
Tuning:                 Standard - [EADGBe]
Tabbed By:              Dean Hill - Comments, Suggestions? the.scotsman@blueyonder.co.uk


****************************
*KINGS OF LEON - MILK - TAB*
****************************



b  -  Bend
sb -  Slow Bend
() -  Bracketed numbers are the note you bend up to
h  -  Hammer On
p  -  Pull Off
r  -  Return
/  -  Slide Up
  -  Slide Down
d  -  Strum Down
u  -  Strum Up
PM -  Palm Mute
 -  Natural Harmonics
^  -  Vibrato






[INTRO] - @ 00:14 (Acoustic) (* Emphasise these notes)

e |------------------------------------------------------------------------------------
B |------------------------------------------------------------------------------------
G |------------------------------------------------------------------------------------
D |--------------------------------------------4----4----4----4----4----4----4----4----
A |---10---10---10---10---10---10---10---10--------------------------------------------
E |-7----7----7----7----9----9----9----9----5----5----5----5----5----5----5----5-------
    *                   *              *    *

   ------------------------------------------------------------------------------------|
   ------------------------------------------------------------------------------------|
   ------------------------------------------------------------------------------------|
   --------------------------------------------4----4----4----4----4----4----4----4----|
   ---10---10---10---10---10---10---10---10--------------------------------------------|
   -7----7----7----7----9----9----9----9----5----5----5----5----5----5----5----5-------|
    *                   *              *    *



[VERSE 1] - (Acoustic) (* Emphasise these notes)

e |------------------------------------------------------------------------------------
B |------------------------------------------------------------------------------------
G |------------------------------------------------------------------------------------
D |--------------------------------------------4----4----4----4----4----4----4----4----
A |---10---10---10---10---10---10---10---10--------------------------------------------
E |-7----7----7----7----9----9----9----9----5----5----5----5----5----5----5----5-------
    *                   *                   *                                  *

   ------------------------------------------------------------------------------------
   ------------------------------------------------------------------------------------
   ------------------------------------------------------------------------------------
   --------------------------------------------4----4----4----4----4----4----4----4----
   ---10---10---10---10---10---10---10---10--------------------------------------------
   -7----7----7----7----9----9----9----9----5----5----5----5----5----5----5----5-------
    *                   *                   *                                  *

   ------------------------------------------------------------------------------------
   ------------------------------------------------------------------------------------
   ------------------------------------------------------------------------------------
   --------------------------------------------4----4----4----4----4----4----4----4----
   ---10---10---10---10---10---10---10---10--------------------------------------------
   -7----7----7----7----9----9----9----9----5----5----5----5----5----5----5----5-------
    *                   *                   *                                  *

   ------------------------------------------------------------------------------------|
   ------------------------------------------------------------------------------------|
   ------------------------------------------------------------------------------------|
   --------------------------------------------4----4----4----4----4----4----4----4----|
   ---10---10---10---10---10---10---10---10--------------------------------------------|
   -7----7----7----7----9----9----9----9----5----5----5----5----5----5----5----5-------|
    *                   *                   *                                  *



[VERSE 2] - (Acoustic) (* Emphasise these notes)

e |------------------------------------------------------------------------------------
B |------------------------------------------------------------------------------------
G |------------------------------------------------------------------------------------
D |--------------------------------------------4----4----4----4----4----4----4----4----
A |---10---10---10---10---10---10---10---10--------------------------------------------
E |-7----7----7----7----9----9----9----9----5----5----5----5----5----5----5----5-------
    *                   *                   *                                  *

   ------------------------------------------------------------------------------------
   ------------------------------------------------------------------------------------
   ------------------------------------------------------------------------------------
   --------------------------------------------4----4----4----4----4----4----4----4----
   ---10---10---10---10---10---10---10---10--------------------------------------------
   -7----7----7----7----9----9----9----9----5----5----5----5----5----5----5----5-------
    *                   *                   *

   ------------------------------------------------------------------------------------
   ------------------------------------------------------------------------------------
   ------------------------------------------------------------------------------------
   --------------------------------------------4----4----4----4----4----4----4----4----
   ---10---10---10---10---10---10---10---10--------------------------------------------
   -7----7----7----7----9----9----9----9----5----5----5----5----5----5----5----5-------
    *                   *                   *                                  *

   ------------------------------------------------------------------------------------|
   ------------------------------------------------------------------------------------|
   ------------------------------------------------------------------------------------|
   --------------------------------------------4----4----4----4----4----4----4----4----|
   ---10---10---10---10---10---10---10---10--------------------------------------------|
   -7----7----7----7----9----9----9----9----5----5----5----5----5----5----5----5-------|
    *                   *                   *                                  *



[CHORUS] - (Electric) (Heavily Palm Muted)

    G               A                 D
e |------------------------------------------------------------------------------------
B |------------------------------------------------------------------------------------
G |------------------------------------------------------------------------------------
D |------------------------------------------------------------------------------------
A |-5-5-5-5-5-5-5-5-7-7-7-7-7-7-7-7-/-12-12-12-12-12-12-12-12-12-12-12-12-12-12-12-12--
E |-3-3-3-3-3-3-3-3-5-5-5-5-5-5-5-5-/-10-10-10-10-10-10-10-10-10-10-10-10-10-10-10-10--

    G               A
   ------------------------------------------------------------------------------------|
   ------------------------------------------------------------------------------------|
   ------------------------------------------------------------------------------------|
   ------------------------------------------------------------------------------------|
   -5-5-5-5-5-5-5-5/7-7-7-7-7-7-7-7----------------------------------------------------|
   -3-3-3-3-3-3-3-3/5-5-5-5-5-5-5-5----------------------------------------------------|


         - (Acoustic)

    G               A               D
e |------------------------------------------------------------------------------------
B |------------------------------------------------------------------------------------
G |------------------------------------------------------------------------------------
D |------------------------------------------------------------------------------------
A |-5-5-5-5-5-5-5-5-7-7-7-7-7-7-7-7-12-12-12-12-12-12-12-12-12-12-12-12-12-12-12-12----
E |-3-3-3-3-3-3-3-3-5-5-5-5-5-5-5-5-10-10-10-10-10-10-10-10-10-10-10-10-10-10-10-10----

    G               A               Bm
   ------------------------------------------------------------------------------------|
   ------------------------------------------------------------------------------------|
   ------------------------------------------------------------------------------------|
   ------------------------------------------------------------------------------------|
   -5-5-5-5-5-5-5-5-7-7-7-7-7-7-7-7---9---9-----10----9--------------------------------|
   -3-3-3-3-3-3-3-3-5-5-5-5-5-5-5-5-7---7-----7-----7----------------------------------|



[LINK] - (Acoustic) @ 01:48 (* Emphasise these notes)

e |------------------------------------------------------------------------------------
B |------------------------------------------------------------------------------------
G |------------------------------------------------------------------------------------
D |--------------------------------------------4----4----4----4----4----4----4----4----
A |---10---10---10---10---10---10---10---10--------------------------------------------
E |-7----7----7----7----9----9----9----9----5----5----5----5----5----5----5----5-------
    *                   *              *    *

   ------------------------------------------------------------------------------------|
   ------------------------------------------------------------------------------------|
   ------------------------------------------------------------------------------------|
   --------------------------------------------4----4----4----4----4----4----4----4----|
   ---10---10---10---10---10---10---10---10--------------------------------------------|
   -7----7----7----7----9----9----9----9----5----5----5----5----5----5----5----5-------|


       - (Electric) @ 01:48

e |------------------------------------------------------------------------------------|
B |------------------------------------------------------------------------------------|
G |------------------------------------------------------------------------------------|
D |-----------------4----4-------------------------------------------4----4------------|
A |-----5---7-----------------7-5---5--------------------5---7-----------------7-5---5-|
E |-5h7---7-----------------------7------------------5h7---7-----------------------7---|



[VERSE 3] - (Acoustic) (* Emphasise these notes)

e |------------------------------------------------------------------------------------
B |------------------------------------------------------------------------------------
G |------------------------------------------------------------------------------------
D |--------------------------------------------4----4----4----4----4----4----4----4----
A |---10---10---10---10---10---10---10---10--------------------------------------------
E |-7----7----7----7----9----9----9----9----5----5----5----5----5----5----5----5-------
    *                   *                   *                                  *

   ------------------------------------------------------------------------------------
   ------------------------------------------------------------------------------------
   ------------------------------------------------------------------------------------
   --------------------------------------------4----4----4----4----4----4----4----4----
   ---10---10---10---10---10---10---10---10--------------------------------------------
   -7----7----7----7----9----9----9----9----5----5----5----5----5----5----5----5-------
    *                   *                   *                                  *
[ Tab from: http://www.guitartabs.cc/tabs/k/kings_of_leon/milk_tab.html ]
   ------------------------------------------------------------------------------------
   ------------------------------------------------------------------------------------
   ------------------------------------------------------------------------------------
   --------------------------------------------4----4----4----4----4----4----4----4----
   ---10---10---10---10---10---10---10---10--------------------------------------------
   -7----7----7----7----9----9----9----9----5----5----5----5----5----5----5----5-------
    *                   *                   *                                  *

   ------------------------------------------------------------------------------------|
   ------------------------------------------------------------------------------------|
   ------------------------------------------------------------------------------------|
   --------------------------------------------4----4----4----4----4----4----4----4----|
   ---10---10---10---10---10---10---10---10--------------------------------------------|
   -7----7----7----7----9----9----9----9----5----5----5----5----5----5----5----5-------|
    *                   *                   *                                  *


          - (Electric) @ 02:20 (Palm Muted)

e |------------------------------------------------------------------------------------|
B |------------------------------------------------------------------------------------|
G |-77-7-4-4-7-7-4-7/9-----77-7-4-4-7-7-4-7/11-----------------------------------------|
D |------------------------------------------------------------------------------------|
A |------------------------------------------------------------------------------------|
E |------------------------------------------------------------------------------------|



[CHORUS] - (Electric) (Heavily Palm Muted)

    G               A                 D
e |------------------------------------------------------------------------------------
B |------------------------------------------------------------------------------------
G |------------------------------------------------------------------------------------
D |------------------------------------------------------------------------------------
A |-5-5-5-5-5-5-5-5-7-7-7-7-7-7-7-7-/-12-12-12-12-12-12-12-12-12-12-12-12-12-12-12-12--
E |-3-3-3-3-3-3-3-3-5-5-5-5-5-5-5-5-/-10-10-10-10-10-10-10-10-10-10-10-10-10-10-10-10--

    G               A                 D
   ------------------------------------------------------------------------------------
   ------------------------------------------------------------------------------------
   ------------------------------------------------------------------------------------
   ------------------------------------------------------------------------------------
   -5-5-5-5-5-5-5-5-7-7-7-7-7-7-7-7-/-12-12-12-12-12-12-12-12-12-12-12-12-12-12-12-12--
   -3-3-3-3-3-3-3-3-5-5-5-5-5-5-5-5-/-10-10-10-10-10-10-10-10-10-10-10-10-10-10-10-10--

    G               A                 D
   ------------------------------------------------------------------------------------
   ------------------------------------------------------------------------------------
   ------------------------------------------------------------------------------------
   ------------------------------------------------------------------------------------
   -5-5-5-5-5-5-5-5-7-7-7-7-7-7-7-7-/-12-12-12-12-12-12-12-12-12-12-12-12-12-12-12-12--
   -3-3-3-3-3-3-3-3-5-5-5-5-5-5-5-5-/-10-10-10-10-10-10-10-10-10-10-10-10-10-10-10-10--

    G               D                 D
   ------------------------------------------------------------------------------------|
   ------------------------------------------------------------------------------------|
   ------------------------------------------------------------------------------------|
   ------------------------------------------------------------------------------------|
   -5-5-5-5-5-5-5-5-7-7-7-7-7-7-7-7-/-12-----------------------------------------------|
   -3-3-3-3-3-3-3-3-5-5-5-5-5-5-5-5-/-10-----------------------------------------------|


         - (Acoustic)

    G               A               D
e |------------------------------------------------------------------------------------
B |------------------------------------------------------------------------------------
G |------------------------------------------------------------------------------------
D |------------------------------------------------------------------------------------
A |-5-5-5-5-5-5-5-5-7-7-7-7-7-7-7-7-12-12-12-12-12-12-12-12-12-12-12-12-12-12-12-12----
E |-3-3-3-3-3-3-3-3-5-5-5-5-5-5-5-5-10-10-10-10-10-10-10-10-10-10-10-10-10-10-10-10----

    G               A               D
   ------------------------------------------------------------------------------------
   ------------------------------------------------------------------------------------
   ------------------------------------------------------------------------------------
   ------------------------------------------------------------------------------------
   -5-5-5-5-5-5-5-5-7-7-7-7-7-7-7-7-12-12-12-12-12-12-12-12-12-12-12-12-12-12-12-12----
   -3-3-3-3-3-3-3-3-5-5-5-5-5-5-5-5-10-10-10-10-10-10-10-10-10-10-10-10-10-10-10-10----

    G               A               D
   ------------------------------------------------------------------------------------
   ------------------------------------------------------------------------------------
   ------------------------------------------------------------------------------------
   ------------------------------------------------------------------------------------
   -5-5-5-5-5-5-5-5-7-7-7-7-7-7-7-7-12-12-12-12-12-12-12-12-12-12-12-12-12-12-12-12----
   -3-3-3-3-3-3-3-3-5-5-5-5-5-5-5-5-10-10-10-10-10-10-10-10-10-10-10-10-10-10-10-10----

    G               A               Bm
   ------------------------------------------------------------------------------------|
   ------------------------------------------------------------------------------------|
   ------------------------------------------------------------------------------------|
   ------------------------------------------------------------------------------------|
   -5-5-5-5-5-5-5-5-7-7-7-7-7-7-7-7---9---9-----10----9--------------------------------|
   -3-3-3-3-3-3-3-3-5-5-5-5-5-5-5-5-7---7-----7-----7----------------------------------|



[OUTRO] - (Acoustic) (* Emphasise these notes)

e |------------------------------------------------------------------------------------
B |------------------------------------------------------------------------------------
G |------------------------------------------------------------------------------------
D |--------------------------------------------4----4----4----4----4----4----4----4----
A |---10---10---10---10---10---10---10---10--------------------------------------------
E |-7----7----7----7----9----9----9----9----5----5----5----5----5----5----5----5-------
    *                   *                   *

   ------------------------------------------------------------------------------------
   ------------------------------------------------------------------------------------
   ------------------------------------------------------------------------------------
   --------------------------------------------4----4----4----4----4----4----4----4----
   ---10---10---10---10---10---10---10---10--------------------------------------------
   -7----7----7----7----9----9----9----9----5----5----5----5----5----5----5----5-------
    *                   *                   *

   ------------------------------------------------------------------------------------
   ------------------------------------------------------------------------------------
   ------------------------------------------------------------------------------------
   --------------------------------------------4----4----4----4----4----4----4----4----
   ---10---10---10---10---10---10---10---10--------------------------------------------
   -7----7----7----7----9----9----9----9----5----5----5----5----5----5----5----5-------
    *                   *                   *

   ------------------------------------------------------------------------------------
   ------------------------------------------------------------------------------------
   ------------------------------------------------------------------------------------
   --------------------------------------------4----4----4----4----4----4----4----4----
   ---10---10---10---10---10---10---10---10--------------------------------------------
   -7----7----7----7----9----9----9----9----5----5----5----5----5----5----5----5-------
    *                   *                   *

   ------------------------------------------------------------------------------------
   ------------------------------------------------------------------------------------
   ------------------------------------------------------------------------------------
   --------------------------------------------4----4----4----4----4----4----4----4----
   ---10---10---10---10---10---10---10---10--------------------------------------------
   -7----7----7----7----9----9----9----9----5----5----5----5----5----5----5----5-------
    *                   *                   *

   ------------------------------------------------------------------------------------|
   ------------------------------------------------------------------------------------|
   ------------------------------------------------------------------------------------|
   --------------------------------------------4----4----4----4----4----4----4----4----|
   ---10---10---10---10---10---10---10---10--------------------------------------------|
   -7----7----7----7----9----9----9----9----5----5----5----5----5----5----5----5-------|
    *                   *              *    *


        - (Electric) (Palm Muted)

e |------------------------------------------------------------------------------------
B |------------------------------------------------------------------------------------
G |--7--4--7--4-7/9-----7--4--7--4-7/11-----7--4--7--4--7-----7--4--7--4---------------
D |-0--0--0--0---------0--0--0--0----------0--0--0--0--------0--0--0--0--7-------------
A |------------------------------------------------------------------------------------
E |------------------------------------------------------------------------------------

   ------------------------------------------------------------------------------------
   ------------------------------------------------------------------------------------
   --7--4--7--4-7/9-----7--4--7--4-7/11-----7--4--7--4--7-----7--4--7--4---------------
   -0--0--0--0---------0--0--0--0----------0--0--0--0--------0--0--0--0--7-------------
   ------------------------------------------------------------------------------------
   ------------------------------------------------------------------------------------

   ------------------------------------------------------------------------------------
   ------------------------------------------------------------------------------------
   --7--4--7--4-7/9-----7--4--7--4-7/11-----7--4--7--4--7-----7--4--7--4---------------
   -0--0--0--0---------0--0--0--0----------0--0--0--0--------0--0--0--0--7-------------
   ------------------------------------------------------------------------------------
   ------------------------------------------------------------------------------------

   ------------------------------------------------------------------------------------
   ------------------------------------------------------------------------------------
   --7--4--7--4-7/9-----7--4--7--4-7/11-----7--4--7--4--7-----7--4--7--4---------------
   -0--0--0--0---------0--0--0--0----------0--0--0--0--------0--0--0--0--7-------------
   ------------------------------------------------------------------------------------
   ------------------------------------------------------------------------------------

   ------------------------------------------------------------------------------------|
   ------------------------------------------------------------------------------------|
   --7--4--7--4-7/9-----7--4--7--4-7/11-----7--4--7--4--------7--4--7--4---------------|
   -0--0--0--0---------0--0--0--0----------0--0--0--0--7-----0--0--0--0--7-------------|
   ------------------------------------------------------------------------------------|
   -GUITAR PLAYS QUIETER HERE----------------------------------------------------------|






****************************************************************************************
****************************************************************************************
****************************************************************************************
Comments