Kings Of Leon - King Of The Rodeo Chords & Tabs

 

King Of The Rodeo Chords & Tabs

Kings Of Leon Chords & Tabs

Version: 1 Type: Tab 0 ratings
1 star 2 stars 3 stars 4 stars 5 stars
comments

King Of The Rodeo Tab

   
*****************************************
*KINGS OF LEON - KING OF THE RODEO - TAB*
*****************************************

Group/Singer Name:      Kings Of Leon
Song:                   "King Of The Rodeo"
Additional Info:        Aha Shake Heartbreak - Track 02
Tuning:                 Standard - [EADGBe]
Tabbed By:              Dean Hill - Comments, Suggestions? the.scotsman@blueyonder.co.uk

b  -  Bend
sb -  Slow Bend
() -  Bracketed numbers are the note you bend up to
h  -  Hammer On
p  -  Pull Off
r  -  Return
/  -  Slide Up
  -  Slide Down
d  -  Strum Down
u  -  Strum Up
PM -  Palm Mute
 -  Natural Harmonics
^  -  Vibrato






[INTRO] - [CALEB] [CALEB HAS AN EASY TIME ON THIS TRACK.]
                  [THIS IS WHAT HE PLAYS ALL THE WAY THROUGH.]
                  [JUST REPEAT...THAT'S ALL...HONEST!]

     E5/B       Emaj/B E5/B             Emaj/B E5/B
e |--0--0--0--0-16-16--0--0--0--0--0--0-16-16--0--0------------------------------------|
B |-17-17-17-17-17-17-17-17-17-17-17-17-17-17-17-17------------------------------------|
G |-16-16-16-16-16-16-16-16-16-16-16-16-16-16-16-16------------------------------------|
D |------------------------------------------------------------------------------------|
A |------------------------------------------------------------------------------------|
E |------------------------------------------------------------------------------------|


        - [MATTHEW]

                                repick noteĀ¬
e |------------------------------------------------------------------------------------|
B |------------------------------------------------------------------------------------|
G |-6-6-6-6-6-6-6-64/6-6-6-6-6-6-6-6-b(9)-r6-6-6-6-6-6-64/6-6-6-64/6-6-6-6----------|
D |------------------------------------------------------------------------------------|
A |------------------------------------------------------------------------------------|
E |------------------------------------------------------------------------------------|



[VERSE 1] - [CALEB CONTINUES MAIN PART]

          - [MATTHEW] @ 00:16

e |------------------------------------------------------------------------------------|
B |-------------------------2--------------------------------------------------------2-|
G |-------------------------2--------------------------------------------------------2-|
D |-------------------------2--------------------------------------------------------2-|
A |-0------------0-------------------------------------------0------------0------------|
E |------0-2-0-2------0-2-0---------------------------------------0-2-0-2------0-2-0---|

   ------------------------------------------------------------------------------------|
   -------------------------2----------------------------------------------------------|
   -------------------------2----------------------------------------------------------|
   -------------------------2----------------------------------------------------------|
   -0------------0-----------------------------------------0------------0--------------|
   ------0-2-0-2------0-2-0-------------------------------------0-2-0-2------0-2-0-2-/-|



[CHORUS] - [CALEB CONTINUES MAIN PART]

         - [MATTHEW]

   C#m              D                       A
e |------------------------------------------------------------------------------------
B |------------------------------------------------------------------------------------
G |-----------------------------------------9-9-9-9-9-9-9-9-9-9-9-9-9-9-9-9------------
D |-----------------------------------------7-7-7-7-7-7-7-7-7-7-7-7-7-7-7-7------------
A |-----------------------------------------0-0-0-0-0-0-0-0-0-0-0-0-0-0-0-0------------
E |-9-9-9-9-9-9-9-9-10-10-10-10-10-10-10-10--------------------------------------------

   C#m              D                       A
   ------------------------------------------------------------------------------------|
   ------------------------------------------------------------------------------------|
   -----------------------------------------9-9-9-9-9-9-9-9-9-9-9-9-9-9-9-9------------|
   -----------------------------------------7-7-7-7-7-7-7-7-7-7-7-7-7-7-7-7------------|
   -----------------------------------------0-0-0-0-0-0-0-0-0-0-0-0-0-0-0-0------------|
   -9-9-9-9-9-9-9-9-10-10-10-10-10-10-10-10--------------------------------------------|



[LINK] - [CALEB CONTINUES MAIN PART]

       - [MATTHEW]

e |------------------------------------------------------------------------------------|
B |------------------------------------------------------------------------------------|
G |-6-6-6-6-6-6-6-64/6-6-6-6-6-6-b(9)-r6----------------------------------------------|
D |------------------------------------------------------------------------------------|
A |------------------------------------------------------------------------------------|
E |------------------------------------------------------------------------------------|



[VERSE 2] - [CALEB CONTINUES MAIN PART]

          - [MATTHEW] @ 00:57

e |------------------------------------------------------------------------------------
B |---------------------------------------------------2--------------------------------
G |---------------------------------------------------2--------------------------------
D |---------------------------------------------------2--------------------------------
A |-0------------0------------0------------0-------------------------------------------
E |------0-2-0-2------0-2-0-2------0-2-0-2------0-2-0----------------------------------

   ------------------------------------------------------------------------------------
   ---------------------------------------------------2--------------------------------
   ---------------------------------------------------2--------------------------------
   ---------------------------------------------------2--------------------------------
   -0------------0------------0------------0-------------------------------------------
   ------0-2-0-2------0-2-0-2------0-2-0-2------0-2-0----------------------------------
[ Tab from: http://www.guitartabs.cc/tabs/k/kings_of_leon/king_of_the_rodeo_tab.html ]
   ------------------------------------------------------------------------------------
   ---------------------------------------------------2--------------------------------
   ---------------------------------------------------2--------------------------------
   ---------------------------------------------------2--------------------------------
   -0------------0------------0------------0-------------------------------------------
   ------0-2-0-2------0-2-0-2------0-2-0-2------0-2-0----------------------------------

   ------------------------------------------------------------------------------------|
   ------------------------------------------------------------------------------------|
   ------------------------------------------------------------------------------------|
   ------------------------------------------------------------------------------------|
   -0------------0------------0------------0-------------------------------------------|
   ------0-2-0-2------0-2-0-2------0-2-0-2------0-2-0-2-/------------------------------|



[CHORUS] - [CALEB CONTINUES MAIN PART]

         - [MATTHEW]

   C#m              D                       A
e |------------------------------------------------------------------------------------
B |------------------------------------------------------------------------------------
G |-----------------------------------------9-9-9-9-9-9-9-9-9-9-9-9-9-9-9-9------------
D |-----------------------------------------7-7-7-7-7-7-7-7-7-7-7-7-7-7-7-7------------
A |-----------------------------------------0-0-0-0-0-0-0-0-0-0-0-0-0-0-0-0------------
E |-9-9-9-9-9-9-9-9-10-10-10-10-10-10-10-10--------------------------------------------

   C#m              D                       A
   ------------------------------------------------------------------------------------|
   ------------------------------------------------------------------------------------|
   -----------------------------------------9-9-9-9-9-9-9-9-9-9-9-9-9-9-9-9------------|
   -----------------------------------------7-7-7-7-7-7-7-7-7-7-7-7-7-7-7-7------------|
   -----------------------------------------0-0-0-0-0-0-0-0-0-0-0-0-0-0-0-0------------|
   -9-9-9-9-9-9-9-9-10-10-10-10-10-10-10-10--------------------------------------------|



[SOLO] - [CALEB CONTINUES MAIN PART]

       - [MATTHEW]

e |------------------------------------------------------------------------------------|
B |-12---------12-------12---------12-------12-------12------14-------14------12-------|
G |-14-b(16)--(16)-r14--14-b(16)--(16)-r14--14-b(16)(16)r14--16-b(18)(18)-r16-14-b(16)-|
D |------------------------------------------------------------------------------------|
A |------------------------------------------------------------------------------------|
E |------------------------------------------------------------------------------------|

   ------------------------------------------------------------------------------------
   --12--------------------------------------------------------------------------------
   -(16)-r14-------2-2222-2-2-2-2-4-4444-4-4-4-4-6-6666-6-6-6-6--9-9-9-9-9-9-9-9-9-9-9-
   ----------9-11--0-0000-0-0-0-0-0-0000-0-0-0-0-7-7777-7-7-7-7-1111111111111111111111-
   ----------0--0--0-0000-0-0-0-0-0-0000-0-0-0-0-0-0000-0-0-0-0--0-0-0-0-0-0-0-0-0-0-0-
   ------------------------------------------------------------------------------------

   ------------------------------------------------------------------------------------|
   ------------------------------------------------------------------------------------|
   -1111111111-------------------------------------------------------------------------|
   --0-0-0-0-0-------------------------------------------------------------------------|
   ------------------------------------------------------------------------------------|



[OUTRO] - [CALEB CONTINUES MAIN PART + 4 BARS AFTER MATTHEWS "A" CHORD RINGS OUT AND]
          [ENDS ON A FINAL "E5/B" WHICH HE LETS RING]

        - [MATTHEW]

   C#m              D                       A
e |------------------------------------------------------------------------------------
B |------------------------------------------------------------------------------------
G |-----------------------------------------9-9-9-9-9-9-9-9-9-9-9-9-9-9-9-9------------
D |-----------------------------------------7-7-7-7-7-7-7-7-7-7-7-7-7-7-7-7------------
A |-----------------------------------------0-0-0-0-0-0-0-0-0-0-0-0-0-0-0-0------------
E |-9-9-9-9-9-9-9-9-10-10-10-10-10-10-10-10--------------------------------------------

   C#m              D                       A
   ------------------------------------------------------------------------------------|
   ------------------------------------------------------------------------------------|
   -----------------------------------------9-9-9-9-9-9-9-9-9-9-9-9-9-9-9-9------------|
   -----------------------------------------7-7-7-7-7-7-7-7-7-7-7-7-7-7-7-7------------|
   -----------------------------------------0-0-0-0-0-0-0-0-0-0-0-0-0-0-0-0------------|
   -9-9-9-9-9-9-9-9-10-10-10-10-10-10-10-10--------------------------------------------|

   C#m              D                       A
   ------------------------------------------------------------------------------------|
   ------------------------------------------------------------------------------------|
   -----------------------------------------9-9-9-9-9-9-9-9-9-9-9-9-9-9-9-9------------|
   -----------------------------------------7-7-7-7-7-7-7-7-7-7-7-7-7-7-7-7------------|
   -----------------------------------------0-0-0-0-0-0-0-0-0-0-0-0-0-0-0-0------------|
   -9-9-9-9-9-9-9-9-10-10-10-10-10-10-10-10--------------------------------------------|

   C#m              D                       A
   ------------------------------------------------------------------------------------|
   ------------------------------------------------------------------------------------|
   -----------------------------------------9-9-9-9-9-9-9-9-9-9-9-9-9-9-9-9--LET LAST--|
   -----------------------------------------7-7-7-7-7-7-7-7-7-7-7-7-7-7-7-7----CHORD---|
   -----------------------------------------0-0-0-0-0-0-0-0-0-0-0-0-0-0-0-0----RING----|
   -9-9-9-9-9-9-9-9-10-10-10-10-10-10-10-10--------------------------------------------|






****************************************************************************************
****************************************************************************************
****************************************************************************************
Comments