Kings Of Leon - King Of The Rodeo Chords & Tabs

 

King Of The Rodeo Chords & Tabs

Kings Of Leon Chords & Tabs

Version: 2 Type: Bass Tab

King Of The Rodeo Bass Tab

-------------------------------------------------------------------------------
Kings of leon
king of the rodeo
-------------------------------------------------------------------------------
tabbed by mike.f

i found it hard to believe there was not a good version of such a great song so i 
i'd put down the correct one!!

Verse 1 (00.00-00:39)
G|---------------------------------------------------------------------------------------------|
D|13-----11----11--------11----11--------------------------------------------------------------|
A|---9-9----9-9---9-9-9-9---9-9---9-9-----12(15)-----------------------------| 12(15)=play 12--| 15 times
E|---------------------------------------------------------------------------------------------|

G|---------------------------------------------------------------------------|
D|-------11----11--------11----11--------------------------------------------|
A|---9-9----9-9---9-9-9-9---9-9---9-9-----12(15)-----------------------------|
E|---------------------------------------------------------------------------|

G|---------------------------------------------------------------------------|
D|-------11----11--------11----11--------------------------------------------|
A|---9-9----9-9---9-9-9-9---9-9---9-9-----12(15)-----------------------------|
E|---------------------------------------------------------------------------|

G|---------------------------------------------------------------------------|
D|-------11----11--------11----11--------------------------------------------|
A|---9-9----9-9---9-9-9-9---9-9---9-9-----12(15)-----------------------------|
E|---------------------------------------------------------------------------|

G|---------------------------------------------------------------------------|
D|-------11----11--------11----11--------------------------------------------|
A|---9-9----9-9---9-9-9-9---9-9---9-9-----12(15)-----------------------------|
E|---------------------------------------------------------------------------|

G|---------------------------------------------------------------------------|
D|-------11----11--------11----11--------------------------------------------|
A|---9-9----9-9---9-9-9-9---9-9---9-9-----12(15)-----------------------------|
E|---------------------------------------------------------------------------|

Chorus 1 (00:39-00:51)
G|---------------------------------------------------------------------------|
D|---------------------------------7(15)-------------------------------------|7(15)=play 7 15 times
A|-5-5-5-5-5-5-5-5-7-7-7-7-7-7-7-7-------------------------------------------|
E|---------------------------------------------------------------------------|

G|---------------------------------------------------------------------------|
D|---------------------------------7(15)-------------------------------------|
A|-5-5-5-5-5-5-5-5-7-7-7-7-7-7-7-7-------------------------------------------|
E|---------------------------------------------------------------------------|

verse 2 (00:51-1:24)

G|---------------------------------------------------------------------------|
D|-------11----11--------11----11--------------------------------------------|
A|---9-9----9-9---9-9-9-9---9-9---9-9-----12(15)-----------------------------|
E|---------------------------------------------------------------------------|
[ Tab from: http://www.guitartabs.cc/tabs/k/kings_of_leon/king_of_the_rodeo_btab_ver_2.html ]
G|---------------------------------------------------------------------------|
D|-------11----11--------11----11--------------------------------------------|
A|---9-9----9-9---9-9-9-9---9-9---9-9-----12(15)-----------------------------|
E|---------------------------------------------------------------------------|

G|---------------------------------------------------------------------------|
D|-------11----11--------11----11--------------------------------------------|
A|---9-9----9-9---9-9-9-9---9-9---9-9-----12(15)-----------------------------|
E|---------------------------------------------------------------------------|

G|---------------------------------------------------------------------------|
D|-------11----11--------11----11--------------------------------------------|
A|---9-9----9-9---9-9-9-9---9-9---9-9-----12(15)-----------------------------|
E|---------------------------------------------------------------------------|

G|---------------------------------------------------------------------------|
D|-------11----11--------11----11--------------------------------------------|
A|---9-9----9-9---9-9-9-9---9-9---9-9-----12(15)-----------------------------|
E|---------------------------------------------------------------------------|

chorus 2 (1:24-1:35)
G|---------------------------------------------------------------------------|
D|---------------------------------7(15)-------------------------------------|7(15)=play 7 15 times
A|-5-5-5-5-5-5-5-5-7-7-7-7-7-7-7-7-------------------------------------------|
E|---------------------------------------------------------------------------|

G|---------------------------------------------------------------------------|
D|---------------------------------7(15)-------------------------------------|
A|-5-5-5-5-5-5-5-5-7-7-7-7-7-7-7-7-------------------------------------------|
E|---------------------------------------------------------------------------|

Verse 3 (1:35-1:48)
G|---------------------------------------------------------------------------|
D|-------11----11--------11----11--------------------------------------------|
A|---9-9----9-9---9-9-9-9---9-9---9-9-----12(15)-----------------------------|
E|---------------------------------------------------------------------------|

G|---------------------------------------------------------------------------|
D|-------11----11--------11----11--------------------------------------------|
A|---9-9----9-9---9-9-9-9---9-9---9-9-----12(15)-----------------------------|
E|---------------------------------------------------------------------------|

chorus 3/outro (1:48-2:25)

G|---------------------------------------------------------------------------|
D|---------------------------------7(15)-------------------------------------|7(15)=play 7 15 times
A|-5-5-5-5-5-5-5-5-7-7-7-7-7-7-7-7-------------------------------------------|
E|---------------------------------------------------------------------------|

G|---------------------------------------------------------------------------|
D|---------------------------------7(15)-------------------------------------|
A|-5-5-5-5-5-5-5-5-7-7-7-7-7-7-7-7-------------------------------------------|
E|---------------------------------------------------------------------------|

G|---------------------------------------------------------------------------|
D|---------------------------------7(15)-------------------------------------|
A|-5-5-5-5-5-5-5-5-7-7-7-7-7-7-7-7-------------------------------------------|
E|---------------------------------------------------------------------------|

G|---------------------------------------------------------------------------|
D|---------------------------------7(15)-------------------------------------|
A|-5-5-5-5-5-5-5-5-7-7-7-7-7-7-7-7-------------------------------------------|
E|---------------------------------------------------------------------------|