Kings Of Leon - Joe's Head Chords & Tabs

 

Joe's Head Chords & Tabs

Kings Of Leon Chords & Tabs

Version: 1 Type: Tab 0 ratings
1 star 2 stars 3 stars 4 stars 5 stars
comments

Joe's Head Tab

   
#----------------------------------PLEASE NOTE---------------------------------#
#This file is the author's own work and represents their interpretation of the #
#song. You may only use this file for private study, scholarship, or research. #
#------------------------------------------------------------------------------

Group/Singer Name:      Kings Of Leon
Song:                   "Joe's Head"
Additional Info:        Youth & Young Manhood - Track 04
Tuning:                 Standard
Tabbed By:              Dean Hill - Comments, Suggestions? the.scotsman@blueyonder.co.uk


[Chords Used]   E(022100); F#m11/C#(X44200); G#m7b13/D#(X66400); Am/E(x7755x)
                Cmaj/G(x[10][10]98x); A(x02220); B(add11)/F#(xx4440)


[Intro]         | E  F#m11/C#  | G#m7b13/D#  F#m11/C#  |
                | E  F#m11/C#  | G#m7b13/D#  F#m11/C#  |
                | E  F#m11/C#  | G#m7b13/D#  F#m11/C#  |
                | E  F#m11/C#  | G#


                ***************************************
                *KINGS OF LEON - JOE'S HEAD LEAD PARTS*
                ***************************************



b  -  Bend
() -  Bracketed numbers are the note you bend up to
h  -  Hammer On
p  -  Pull Off
r  -  Return
/  -  Slide Up
  -  Slide Down
d  -  Strum Down
u  -  Strum Up
PM -  Palm Mute
NH -  Natural Harmonics
^  -  Vibrato



[INTRO] - [00:09]
e -5p4-4------5p4-4--5p4-7--5p4-4------5p4-4--5p4-7---------------------
B ----5----------5------5------5----------5------5----------------------
G ----------------------------------------------------------------------
D ----------------------------------------------------------------------
A ----------------------------------------------------------------------
E ----------------------------------------------------------------------



[LINK]
e -5p4-4------5p4-4--5p4-7--5p4-4------5p4-4--5p4-7---------------------
B ----5----------5------5------5----------5------5----------------------
G ----------------------------------------------------------------------
D ----------------------------------------------------------------------
A ----------------------------------------------------------------------
E ----------------------------------------------------------------------



                                                     [BRIDGE]
[VERSE 2]                                            Am     C
e ----------------------------------------------------------------------
B ----------------------------------------------------------------------
G ---------------------------------------------------5------9-----------
D ---------------------------------------------------7-----10-----------
A ----22--2/4-44-4/6-66-64-44--[TIMES 4 THEN PLAY]--7-----10-----------
E -0-[LET RING]--------------------------------------5------8-----------



[CHORUS]
e ----------------------------------------------------------------------
B ------0-----0-0---------------------------------XX5-55-5-XX-----------
G ---0h1---0h1-----6-6--666-8-88------99------9-9-XX6-66-6-XX-4-44-444--
D -----------------7-7--777-9-99--4/9-99--4/9-9-9-XX7-77-7-XX-6-66-666--
A -----------------7-7--777-9-99--2/7-77--2/7-7-7-XX7-77-7-XX-6-66-666--
E -0--------------------------------------------------------------------

  ----------------------------------------------------------------------0-
  ------0-----0-0------------------------------------5-55-5-XX----------0-
  ---0h1---0h1-----6-6--666-8-88------999------9-999-6-66-6-XX-4-44-444-2-
  -----------------7-7--777-9-99--4/9-999--4/9-9-999-7-77-7-XX-6-66-666-4-
  -----------------7-7--777-9-99--2/7-777--2/7-7-777-7-77-7-XX-6-66-666-4-
  -0----------------------------------------------------------------------



[LINK]
e -5p4-4------5p4-4--5p4-7--5p4-4------5p4-4--5p4-7---------------------
B ----5----------5------5------5----------5------5----------------------
G ----------------------------------------------------------------------
D ----------------------------------------------------------------------
A ----------------------------------------------------------------------
E ----------------------------------------------------------------------

[ Tab from: http://www.guitartabs.cc/tabs/k/kings_of_leon/joes_head_tab.html ]
                                                     [BRIDGE]
[VERSE 3]                                            Am     C
e ----------------------------------------------------------------------
B ----------------------------------------------------------------------
G ---------------------------------------------------5------9-----------
D ---------------------------------------------------7-----10-----------
A ----22--2/4-44-4/6-66-64-44--[TIMES 4 THEN PLAY]--7-----10-----------
E -0-[LET RING]--------------------------------------5------8-----------



[CHORUS]
e ----------------------------------------------------------------------
B ------0-----0-0----------------------------------XX5-55-5-XX----------
G ---0h1---0h1-----6-6--666-8-88------999------9-9-XX6-66-6-XX-4-44-444-
D -----------------7-7--777-9-99--4/9-999--4/9-9-9-XX7-77-7-XX-6-66-666-
A -----------------7-7--777-9-99--2/7-777--2/7-7-7-XX7-77-7-XX-6-66-666-
E -0--------------------------------------------------------------------

  ----------------------------------------------------------------------0-
  ------0-----0-0------------------------------------5-55-5-XX----------0-
  ---0h1---0h1-----6-6--666-8-88------999------9-999-6-66-6-XX-4-44-444-2-
  -----------------7-7--777-9-99--4/9-999--4/9-9-999-7-77-7-XX-6-66-666-4-
  -----------------7-7--777-9-99--2/7-777--2/7-7-777-7-77-7-XX-6-66-666-4-
  -0----------------------------------------------------------------------



[SOLO/BRIDGE]
e ----------------------------------------------------------------------
B ----------------------------------------------------------------------
G -------4-6--4---------4-6/9--6p4---------4--6-4-6--9--8-9-11--9-11-12-
D -4--6---------6-4--6------------6--4--6-------------------------------
A ----------------------------------------------------------------------
E ----------------------------------------------------------------------



[LINK]
e ----4-------5-------7-------5-------4-------5-------7-------5---------
B -5----5--7----7--9----9--7----7--5----5--7----7--9----9--7----7-------
G ----------------------------------------------------------------------
D ----------------------------------------------------------------------
A ----------------------------------------------------------------------
E ----------------------------------------------------------------------



[CHORUS]
e ----------------------------------------------------------------------
B ------0-----0-0----------------------------------XX5-55-5-XX----------
G ---0h1---0h1-----6-6--666-8-88------999------9-9-XX6-66-6-XX-4-44-444-
D -----------------7-7--777-9-99--4/9-999--4/9-9-9-XX7-77-7-XX-6-66-666-
A -----------------7-7--777-9-99--2/7-777--2/7-7-7-XX7-77-7-XX-6-66-666-
E -0--------------------------------------------------------------------

  ----------------------------------------------------------------------
  ------0-----0-0------------------------------------5-55-5-XX----------
  ---0h1---0h1-----6-6--666-8-88------999------9-999-6-66-6-XX-4-44-444-
  -----------------7-7--777-9-99--4/9-999--4/9-9-999-7-77-7-XX-6-66-666-
  -----------------7-7--777-9-99--2/7-777--2/7-7-777-7-77-7-XX-6-66-666-
  -0--------------------------------------------------------------------

  ----------------------------------------------------------------------
  ------0-----0-0----------------------------------XX5-55-5-XX----------
  ---0h1---0h1-----6-6--666-8-88------999------9-9-XX6-66-6-XX-4-44-444-
  -----------------7-7--777-9-99--4/9-999--4/9-9-9-XX7-77-7-XX-6-66-666-
  -----------------7-7--777-9-99--2/7-777--2/7-7-7-XX7-77-7-XX-6-66-666-
  -0--------------------------------------------------------------------

  ----------------------------------------------------------------------0-
  ------0-----0-0------------------------------------5-55-5-XX----------0-
  ---0h1---0h1-----6-6--666-8-88------999------9-999-6-66-6-XX-4-44-444-2-
  -----------------7-7--777-9-99--4/9-999--4/9-9-999-7-77-7-XX-6-66-666-4-
  -----------------7-7--777-9-99--2/7-777--2/7-7-777-7-77-7-XX-6-66-666-4-
  -0----------------------------------------------------------------------






****************************************************************************************
****************************************************************************************
****************************************************************************************
Comments