Kings Of Leon - Happy Alone Chords & Tabs

 

Happy Alone Chords & Tabs

Kings Of Leon Chords & Tabs

Version: 1 Type: Tab 0 ratings
1 star 2 stars 3 stars 4 stars 5 stars
comments

Happy Alone Tab

   
#----------------------------------PLEASE NOTE---------------------------------#
#This file is the author's own work and represents their interpretation of the #
#song. You may only use this file for private study, scholarship, or research. #
#------------------------------------------------------------------------------


Group/Singer Name:      Kings Of Leon
Song:                   "Happy Alone"
Additional Info:        Youth & Young Manhood - Track 02
Tuning:                 Rhythm (Caleb) - Standard / Lead (Matthew) - Drop D: [DADGBe]
Tabbed By:              Dean Hill - Comments, Suggestions? the.scotsman@blueyonder.co.uk


[Chords Used]   D([10][12][12][11][10][10]); G(355433); B(79987X); A(57765X);
                G*(35543X)
                

[Intro]         | D | D | D | D |
                | G | G | G | G |


                ****************************************
                *KINGS OF LEON - HAPPY ALONE LEAD PARTS*
                ****************************************



b  -  Bend
() -  Bracketed numbers are the note you bend up to
h  -  Hammer On
p  -  Pull Off
r  -  Return
/  -  Slide Up
  -  Slide Down
d  -  Strum Down
u  -  Strum Up
PM -  Palm Mute
NH -  Natural Harmonics
^  -  Vibrato






[INTRO]
   1 & 2 & 3 & 4 &  1 & 2 & 3 & 4 &   1 & 2 & 3 & 4 &   1 & 2 & 3 & 4 &
e ----------------|-----------------|-----------------|-----------------|
B ----------------|-----------------|-----------------|-----------------|
G ----------------|-----------------|-----------------|-----------------|
D ----------------|-----------------|-----------------|-----------------|
A ----------------|-----------------|-----------------|-----------------|
D -0--------------|-----------------|-0---------------|----------2--4---|

   1 & 2 & 3 & 4 &  1 & 2 & 3 & 4 &   1 & 2 & 3 & 4 &   1 & 2 & 3 & 4 &
  ----------------|-----------------|-----------------|-----------------|
  ----------------|-----------------|-----------------|-----------------|
  ----------------|-----------------|-----------------|-----------------|
  ----------------|-----------------|-----------------|-----------------|
  ----------------|-----------------|-----------------|-----------------|
  -5--------------|/9---------------|/12--------------|5-------7-------|

   1 & 2 & 3 & 4 &
  ----------------|
  ----------------|
  ----------------|
  ----------------|
  ----------------|
  -0--------------|



[VERSE 1] - NOTHING PLAYED



[CHORUS 1]
e ----------------------------------------------------------------------
B ----------------------------------------------------------------------
G -5-4----5--4----------------------------5-4----5--4--------------------
D -----7-------7-5--[TIMES 7, THEN PLAY]------7-------0-7----------------
A ----------------------------------------------------0------------------
D ----------------------------------------------------0------------------



[VERSE 2] X2
e --------------------------------------------------------------------------
B --------------------------------------------------------------------------
G --------------------------------------------------------------------------
D -4-4-4-4-4-4-7-7-4-4-4-4-4-4-7-7-4-4-4-4-4-4-7-7-4-4-4-7-7-7-4-4/---------
A -5-5-5-5-5-5-5-5-5-5-5-5-5-5-5-5-5-5-5-5-5-5-5-5-5-5-5-5-5-5-5-5/---------
D --------------------------------------------------------------------------

  --------------------------------------------------------------------------
  --------------------------------------------------------------------------
  --------------------------------------------------------------------------
  --9--9--9--9--9--9-12-12--9--9--9--9--9--9-12-12--9--9--9--9--9--9-12-12--
  -10-10-10-10-10-10-10-10-10-10-10-10-10-10-10-10-10-10-10-10-10-10-10-10--
  --------------------------------------------------------------------------
  
  --------------------------------------------------------------------------
  --------------------------------------------------------------------------
  --------------------------------------------------------------------------
  --9--9--9-12-12-12--9--9-------------------------------------------------
  -10-10-10-10-10-10-10-10-------------------------------------------------
  --------------------------------------------------------------------------



[CHORUS 2] X8
e -----------------
B -----------------
G -5-4----5--4-----
D -----7-------7-5-
A -----------------
D -----------------



[SOLO]
e -----------------------------------XX-6-66-66666-666/-----------------
B -3333-33333-3333--6-66-6666-6-666--XX-5-55-55555-555/-----------------
G -2223-22333-2222--7-77-7777-7-777-------------------------------------
D ----------------------------------------------------------------------
A ----------------------------------------------------------------------
D ----------------------------------------------------------------------

  -10101010-101010-101010-101010----------------------------------------
  -10101010-101010-101010-101010----------------------------------------
  -------------------------------12--12p10----10--12--10-12-10---------
  -----------------------------------------12---------------------------
  ----------------------------------------------------------------------
  ----------------------------------------------------------------------

  ----------------------------------------------------------------------
  -----------6-------6---8---6---8---6----11--11-11--11-11--8----------
  ---4---7-------7-------------------------0----------------------------
  -5---5---5---5---5---5---5---5---5------------------------------------
  ----------------------------------------------------------------------
  ----------------------------------------------------------------------


[ Tab from: http://www.guitartabs.cc/tabs/k/kings_of_leon/happy_alone_tab.html ]
[MIDDLE 8]
   1 & 2 & 3 & 4 &  1 & 2 & 3 & 4 &   1 & 2 & 3 & 4 &   1 & 2 & 3 & 4 &
e ----------------|-----------------|-----------------|-----------------|
B ----------------|-----------------|-----------------|-----------------|
G ----------------|-----------------|-----------------|-----------------|
D ----------------|-----------------|-0-0-0-----------|-0-0-0-----------|
A ----------------|-----------------|-0-0-0-----------|-0-0-0-----------|
D -9--------------|-7--------------|-0-0-0-----------|-0-0-0-----------|

   1 & 2 & 3 & 4 &  1 & 2 & 3 & 4 &   1 & 2 & 3 & 4 &   1 & 2 & 3 & 4 &
  ----------------|-----------------|-----------------|-----------------|
  ----------------|-----------------|-----------------|-----------------|
  ----------------|-----------------|-----------------|-----------------|
  ----------------|-----------------|-9---------------|-----------------|
  ----------------|-----------------|-9---------------|-----------------|
  -5--------------|-7---------------|-9---------------|-----------------|



[LINK]
   1 & 2 & 3 & 4 &  1 & 2 & 3 & 4 &   1 & 2 & 3 & 4 &   1 & 2 & 3 & 4 &
e ----------------|-----------------|-----------------|-----------------|
B ----------------|-----------------|-----------------|-----------------|
G ----------------|-----------------|-----------------|-----------------|
D ----------------|-----------------|-----------------|-----------------|
A ----------------|-----------------|-----------------|-----------------|
D -0--------------|-----------------|-0---------------|----------2--4---|

   1 & 2 & 3 & 4 &  1 & 2 & 3 & 4 &   1 & 2 & 3 & 4 &   1 & 2 & 3 & 4 &
  ----------------|-----------------|-----------------|-----------------|
  ----------------|-----------------|-----------------|-----------------|
  ----------------|-----------------|-----------------|-----------------|
  ----------------|-----------------|-----------------|-----------------|
  ----------------|-----------------|-----------------|-----------------|
  -5--------------|/9---------------|/12--------------|5-------7-------|

   1 & 2 & 3 & 4 &
  ----------------|
  ----------------|
  ----------------|
  ----------------|
  ----------------|
  -0--------------|



[CHORUS 3] X16
e -----------------
B -----------------
G -5-4----5--4-----
D -----7-------7-5-
A -----------------
D -----------------



[OUTRO] - This was a pain to TAB. It's pretty much spot-on, but when learning it,
          try to get a feel for the rhythm rather than being EXACT with the TAB.

SLIGHT BEND--------¬-¬
e -5-----------5-----------7p5-5--7-5----5-5----5-5-5-------------------
B -6-6-6-6-6---6-6-6-6-6-------6----6-6--6-6-6--6-6-6-6-----------------
G ------------------------------------7------7--------7-----------------
D ----------------------------------------------------------------------
A ----------------------------------------------------------------------
D ----------------------------------------------------------------------

BEND UP 1/2---------------------------------------------¬
  -10--------10----10----10----10-10----10------------------------------
  -10--10-13-10----10-10-10-10-10-10-10-10-13p10----10-----------------
  --------------12----12----12-------12----------12-----12-10----10-12--
  ------------------------------------------------------------12-12-----
  ----------------------------------------------------------------------
  ----------------------------------------------------------------------

  ----------10-10-------------------------------------------------------
  -10----10----12b13-10-10-----10-10------------------------------------
  -12b14-------------10-10-10--10-10-10--10-10-10-----------------------
  -------------------------12--------12--12-12-12-----------------------
  ----------------------------------------------------------------------
  ----------------------------------------------------------------------

  ----------------------------------------------------------------------
  -10-10--10-1010-10-10-10-10-10-10-1010-10-10-10-10-1010-10-10---------
  -10-10--10-1010-10-10-10-10-10-12-1010-12-12-12-12-1212-12-12---------
  ----------------------------------------------------------------------
  ----------------------------------------------------------------------
  ----------------------------------------------------------------------

  ----------------------------------------------------------------------
  -10-10--1010-10-10-1010-----------------------------------------------
  -10-10--1010-10-10-1212-----------------------------------------------
  ----------------------------------------------------------------------
  ------------------------X-5--6-7--X-10--11-12--X-5--6-7--X-10--11-12--
  ------------------------X---------X------------X---------X------------

  ----------------------------------------------------------------------
  ----------------------------------------------------------------------
  ----------------------------------------------------------------------
  ----------------------------------------------------------------------
  -X-5--6-7--X-10--11-12--X-5--6-7--X-10--11-12-------------------------
  -X---------X------------X---------X-----------------------------------
  
  -----------------------------------------0----------------------------
  -----------------------------------------0----------------------------
  -5-4----5--4-----------------------------5----------------------------
  -----7-------7-5--[TIMES 7, THEN STRUM]--0----------------------------
  ----------------------------------------------------------------------
  ----------------------------------------------------------------------






****************************************************************************************
****************************************************************************************
****************************************************************************************

Comments