Kings Of Leon - Four Kicks Chords & Tabs

 

Four Kicks Chords & Tabs

Kings Of Leon Chords & Tabs

Version: 1 Type: Tab 0 ratings
1 star 2 stars 3 stars 4 stars 5 stars
comments

Four Kicks Tab

   
#----------------------------------PLEASE NOTE---------------------------------#
#This file is the author's own work and represents their interpretation of the #
#song. You may only use this file for private study, scholarship, or research. #
#------------------------------------------------------------------------------#

Group/Singer Name:      Kings Of Leon
Song:                   "Four Kicks"
Additional Info:        Aha Shake Heartbreak - Track 10
Tuning:                 Standard - [EADGBe]
Tabbed By:              Dean Hill - Comments, Suggestions? the.scotsman@blueyonder.co.uk


**********************************
*KINGS OF LEON - FOUR KICKS - TAB*
**********************************



b  -  Bend
sb -  Slow Bend
() -  Bracketed numbers are the note you bend up to
h  -  Hammer On
p  -  Pull Off
r  -  Return
/  -  Slide Up
  -  Slide Down
d  -  Strum Down
u  -  Strum Up
PM -  Palm Mute
 -  Natural Harmonics
^  -  Vibrato


[INTRO] - [CALEB]

    E    G    A    G  E    G    A    G  E    G    A    G   D
e |--------------------------------------------------------101010--10-10--10-10--10-10-
B |--------------------------------------------------------101010--10-10--10-10--10-10-
G |-1-1--4-X--6-X--4--1-1--4-X--6-X--4--1-1--4-X--6-X--4-X-111111--11-11--11-11--11-11-
D |-2-2--5-X--7-X--5--2-2--5-X--7-X--5--2-2--5-X--7-X--5-X-121212--12-12--12-12--12-12-
A |-2-2--5-X--7-X--5--2-2--5-X--7-X--5--2-2--5-X--7-X--5-X-121212--12-12--12-12--12-12-
E |-0-0--3-X--5-X--3--0-0--3-X--5-X--3--0-0--3-X--5-X--3-X-101010--10-10--10-10--10-10-

    E    G    A    G  E    G    A    G  E    G    A    G   D
   --------------------------------------------------------101010--10-10--10-10--10-10-
   --------------------------------------------------------101010--10-10--10-10--10-10-
   -1-1--4-X--6-X--4--1-1--4-X--6-X--4--1-1--4-X--6-X--4-X-111111--11-11--11-11--11-11-
   -2-2--5-X--7-X--5--2-2--5-X--7-X--5--2-2--5-X--7-X--5-X-121212--12-12--12-12--12-12-
   -2-2--5-X--7-X--5--2-2--5-X--7-X--5--2-2--5-X--7-X--5-X-121212--12-12--12-12--12-12-
   -0-0--3-X--5-X--3--0-0--3-X--5-X--3--0-0--3-X--5-X--3-X-101010--10-10--10-10--10-10-
   
      D
   -X-10-------------------------------------------------------------------------------|
   -X-10-------------------------------------------------------------------------------|
   -X-11-------------------------------------------------------------------------------|
   -X-12-------------------------------------------------------------------------------|
   -X-12-------------------------------------------------------------------------------|
   -X-10-------------------------------------------------------------------------------|


        - [MATTHEW] @ 00:04

    D
e |-10-10--10-10--10-10--10-10---------------------------------------------------------
B |-10-10--10-10--10-10--10-10---------------------------------------------------------
G |-11-11--11-11--11-11--11-11---------------------------------------------------------
D |-12-12--12-12--12-12--12-12---------------------------------------------------------
A |-10-10--10-10--10-10--10-10---------------------------------------------------------
E |-10-10--10-10--10-10--10-10---------------------------------------------------------

    E    G    A    G  E    G    A    G  E    G    A    G   D
   -0-0--3-X--5-X--3--0-0--3-X--5-X--3--0-0--3-X--5-X--3-X-10-10--10-10--10-10--10-10-|
   -0-0--3-X--5-X--3--0-0--3-X--5-X--3--0-0--3-X--5-X--3-X-10-10--10-10--10-10--10-10-|
   -1-1--4-X--6-X--4--1-1--4-X--6-X--4--1-1--4-X--6-X--4-X-11-11--11-11--11-11--11-11-|
   -2-2--5-X--7-X--5--2-2--5-X--7-X--5--2-2--5-X--7-X--5-X-12-12--12-12--12-12--12-12-|
   -2-2--5-X--7-X--5--2-2--5-X--7-X--5--2-2--5-X--7-X--5-X-12-12--12-12--12-12--12-12-|
   -0-0--3-X--5-X--3--0-0--3-X--5-X--3--0-0--3-X--5-X--3-X-10-10--10-10--10-10--10-10-|



[VERSE 1] - [CALEB]

"...Huffman don't take no nonsense,"

                                    E    G    A    G  E    G    A    G  D
e |--------------------------------------------------------------------X10-------------
B |--------------------------------------------------------------------X10-------------
G |---------------------------------1-1--4-X--6-X--4--1-1--4-X--6-X--4-X11-------------
D |---------------------------------2-2--5-X--7-X--5--2-2--5-X--7-X--5-X12-------------
A |---------------------------------2-2--5-X--7-X--5--2-2--5-X--7-X--5-X12-------------
E |---------------------------------0-0--3-X--5-X--3--0-0--3-X--5-X--3-X10-------------

          "...He's here to rectify,"

                                    E    G    A    G  E    G    A    G  E
   --------------------------------------------------------------------X0--------------
   --------------------------------------------------------------------X0--------------
   ---------------------------------1-1--4-X--6-X--4--1-1--4-X--6-X--4-X1--------------
   ---------------------------------2-2--5-X--7-X--5--2-2--5-X--7-X--5-X2--------------
   ---------------------------------2-2--5-X--7-X--5--2-2--5-X--7-X--5-X2--------------
   ---------------------------------0-0--3-X--5-X--3--0-0--3-X--5-X--3-X0--------------

"...He's got his black belt buckle,"

                                    E    G    A    G  E    G    A    G D
e |--------------------------------------------------------------------101010----------
B |--------------------------------------------------------------------101010----------
G |---------------------------------1-1--4-X--6-X--4--1-1--4-X--6-X--4-111111----------
D |---------------------------------2-2--5-X--7-X--5--2-2--5-X--7-X--5-121212----------
A |---------------------------------2-2--5-X--7-X--5--2-2--5-X--7-X--5-121212----------
E |---------------------------------0-0--3-X--5-X--3--0-0--3-X--5-X--3-101010----------

"...the red man's fire in his eye."

                                    E    G    A    G  E    G    A    G
   ------------------------------------------------------------------------------------|
   ------------------------------------------------------------------------------------|
   ---------------------------------1-1--4-X--6-X--4--1-1--4-X--6-X--4-----------------|
   ---------------------------------2-2--5-X--7-X--5--2-2--5-X--7-X--5-----------------|
   ---------------------------------2-2--5-X--7-X--5--2-2--5-X--7-X--5-----------------|
   ---------------------------------0-0--3-X--5-X--3--0-0--3-X--5-X--3-----------------|


          - [MATTHEW] @ 00:11¬              THEN THIS @ 00:14¬

                              G                               G
e |------------------------------------------------------------------------------------
B |---------------------------12------------------------------12----------------------
G |---------------------------12-[LET RING]-------------------12----------------------
D |---------------------------12------------------------------12----------------------
A |---------------------------10------------------------------10-----------------------
E |------------------------------------------------------------------------------------

    @ 00:17     @ 00:19     @ 00:23     @ 00:25     @ 00:28     @ 00:31

    D           D           Em          Em          D           D
   -10----------10/---------12----------121212-----10----------10/--------------------
   -10----------10/---------12----------121212-----10----------10/--------------------
   -11----------11/---------12----------121212-----11----------11/--------------------
   ------------------------------------------------------------------------------------
   ------------------------------------------------------------------------------------
   ------------------------------------------------------------------------------------

    E    G    A    G  E    G    A    G
   ------------------------------------------------------------------------------------|
   ------------------------------------------------------------------------------------|
   -1-1--4-X--6-X--4--1-1--4-X--6-X--4-------------------------------------------------|
   -2-2--5-X--7-X--5--2-2--5-X--7-X--5-------------------------------------------------|
   -2-2--5-X--7-X--5--2-2--5-X--7-X--5-------------------------------------------------|
   -0-0--3-X--5-X--3--0-0--3-X--5-X--3-------------------------------------------------|



[CHORUS] - [CALEB] (Matthew plays "as CALEB", unless specified by bracketed parts)

      "...You with your switchblade posse,"    "...I'll get my guns from the sou-uth,"
    F                                         Bb                                     F
e |-1---------------------------------(XX)----6--------------------------------------1-
B |-1---------------------------------(XX)----6--------------------------------------1-
G |-2---------------------------------(XX)----7--------------------------------------2-
D |-3---------------------------------(XX)----8--------------------------------------3-
A |-3---------------------------------(XX)----8--------------------------------------3-
E |-1---------------------------------(XX)----6--------------------------------------1-

"...We'll take to the yard like a cockfight,"    "...Four kicks whose strutting now-ow.,"
                                              Bb                      Bb
   -------------------------------------------6-----------------------X----------------|
   -------------------------------------------6-----------------------X----------------|
   -------------------------------------------7-----------------------X----------------|
   -------------------------------------------8-----------------------X----------------|
   -------------------------------------------8-----------------------X----------------|
   -------------------------------------------6-----------------------X----------------|



[LINK] - [CALEB] + [MATTHEW]

    E    G    A    G  E    G    A    G  E    G    A    G   D
e |--------------------------------------------------------101010--10-10--10-10--10-10-
B |--------------------------------------------------------101010--10-10--10-10--10-10-
G |-1-1--4-X--6-X--4--1-1--4-X--6-X--4--1-1--4-X--6-X--4-X-111111--11-11--11-11--11-11-
D |-2-2--5-X--7-X--5--2-2--5-X--7-X--5--2-2--5-X--7-X--5-X-121212--12-12--12-12--12-12-
A |-2-2--5-X--7-X--5--2-2--5-X--7-X--5--2-2--5-X--7-X--5-X-121212--12-12--12-12--12-12-
E |-0-0--3-X--5-X--3--0-0--3-X--5-X--3--0-0--3-X--5-X--3-X-101010--10-10--10-10--10-10-

    E    G    A    G  E    G    A    G  E    G    A    G   D
   --------------------------------------------------------10-10--10-10--10-10--10-10--
   --------------------------------------------------------10-10--10-10--10-10--10-10--
   -1-1--4-X--6-X--4--1-1--4-X--6-X--4--1-1--4-X--6-X--4-X-11-11--11-11--11-11--11-11--
   -2-2--5-X--7-X--5--2-2--5-X--7-X--5--2-2--5-X--7-X--5-X-12-12--12-12--12-12--12-12--
   -2-2--5-X--7-X--5--2-2--5-X--7-X--5--2-2--5-X--7-X--5-X-12-12--12-12--12-12--12-12--
   -0-0--3-X--5-X--3--0-0--3-X--5-X--3--0-0--3-X--5-X--3-X-10-10--10-10--10-10--10-10--
   
      D
   -X-10-------------------------------------------------------------------------------|
   -X-10-------------------------------------------------------------------------------|
   -X-11-------------------------------------------------------------------------------|
   -X-12-------------------------------------------------------------------------------|
   -X-12-------------------------------------------------------------------------------|
   -X-10-------------------------------------------------------------------------------|



[VERSE 2] - [CALEB]

       "...This party's over-rated,"

                                    E    G    A    G  E    G    A    G  D
e |--------------------------------------------------------------------X10-------------
B |--------------------------------------------------------------------X10-------------
G |---------------------------------1-1--4-X--6-X--4--1-1--4-X--6-X--4-X11-------------
D |---------------------------------2-2--5-X--7-X--5--2-2--5-X--7-X--5-X12-------------
A |---------------------------------2-2--5-X--7-X--5--2-2--5-X--7-X--5-X12-------------
E |---------------------------------0-0--3-X--5-X--3--0-0--3-X--5-X--3-X10-------------

"...But there ain't shit else to do,"
[ Tab from: http://www.guitartabs.cc/tabs/k/kings_of_leon/four_kicks_tab.html ]
                                    E    G    A    G  E    G    A    G  E
   --------------------------------------------------------------------X0--------------
   --------------------------------------------------------------------X0--------------
   ---------------------------------1-1--4-X--6-X--4--1-1--4-X--6-X--4-X1--------------
   ---------------------------------2-2--5-X--7-X--5--2-2--5-X--7-X--5-X2--------------
   ---------------------------------2-2--5-X--7-X--5--2-2--5-X--7-X--5-X2--------------
   ---------------------------------0-0--3-X--5-X--3--0-0--3-X--5-X--3-X0--------------

"...lovin' on the boy from the city,"

                                    E    G    A    G  E    G    A    G D
e |--------------------------------------------------------------------101010----------
B |--------------------------------------------------------------------101010----------
G |---------------------------------1-1--4-X--6-X--4--1-1--4-X--6-X--4-111111----------
D |---------------------------------2-2--5-X--7-X--5--2-2--5-X--7-X--5-121212----------
A |---------------------------------2-2--5-X--7-X--5--2-2--5-X--7-X--5-121212----------
E |---------------------------------0-0--3-X--5-X--3--0-0--3-X--5-X--3-101010----------

"...I'll be lovin' him under my shoe."

                                    E    G    A    G  E    G    A    G
   ------------------------------------------------------------------------------------|
   ------------------------------------------------------------------------------------|
   ---------------------------------1-1--4-X--6-X--4--1-1--4-X--6-X--4-----------------|
   ---------------------------------2-2--5-X--7-X--5--2-2--5-X--7-X--5-----------------|
   ---------------------------------2-2--5-X--7-X--5--2-2--5-X--7-X--5-----------------|
   ---------------------------------0-0--3-X--5-X--3--0-0--3-X--5-X--3-----------------|


          - [MATTHEW] @ 00:57¬              THEN THIS @ 00:59¬

                              G                               G
e |------------------------------------------------------------------------------------
B |---------------------------12------------------------------121212------------------
G |---------------------------12-[LET RING]-------------------121212------------------
D |---------------------------12------------------------------121212------------------
A |---------------------------10------------------------------101010-------------------
E |------------------------------------------------------------------------------------

    @ 01:02     @ 01:05     @ 01:08     @ 01:11     @ 01:14     @ 01:16

    D           D           Em          Em          D           D
   -10----------10/---------12----------12---------10----------10/--------------------
   -10----------10/---------12----------12---------10----------10/--------------------
   -11----------11/---------12----------12---------11----------11/--------------------
   ------------------------------------------------------------------------------------
   ------------------------------------------------------------------------------------
   ------------------------------------------------------------------------------------

    E    G    A    G  E    G    A    G
   ------------------------------------------------------------------------------------|
   ------------------------------------------------------------------------------------|
   -1-1--4-X--6-X--4--1-1--4-X--6-X--4-------------------------------------------------|
   -2-2--5-X--7-X--5--2-2--5-X--7-X--5-------------------------------------------------|
   -2-2--5-X--7-X--5--2-2--5-X--7-X--5-------------------------------------------------|
   -0-0--3-X--5-X--3--0-0--3-X--5-X--3-------------------------------------------------|



[CHORUS] - [CALEB] + [MATTHEW]

      "...You with your switchblade posse,"    "...I'll get my guns from the sou-uth,"
    F                                         Bb                                     F
e |-1-----------------------------------------6--------------------------------------1-
B |-1-----------------------------------------6--------------------------------------1-
G |-2-----------------------------------------7--------------------------------------2-
D |-3-----------------------------------------8--------------------------------------3-
A |-3-----------------------------------------8--------------------------------------3-
E |-1-----------------------------------------6--------------------------------------1-

"...We'll take to the yard like a cockfight,"    "...Four kicks whose strutting now-ow.,"
                                              Bb                      Bb
   -------------------------------------------6-----------------------X----------------|
   -------------------------------------------6-----------------------X----------------|
   -------------------------------------------7-----------------------X----------------|
   -------------------------------------------8-----------------------X----------------|
   -------------------------------------------8-----------------------X----------------|
   -------------------------------------------6-----------------------X----------------|



[LINK] - [CALEB]

    E    G    A    G  E    G    A    G  E    G    A    G   D
e |--------------------------------------------------------10-10--10-10--10-10--10-10--
B |--------------------------------------------------------10-10--10-10--10-10--10-10--
G |-1-1--4-X--6-X--4--1-1--4-X--6-X--4--1-1--4-X--6-X--4-X-11-11--11-11--11-11--11-11--
D |-2-2--5-X--7-X--5--2-2--5-X--7-X--5--2-2--5-X--7-X--5-X-12-12--12-12--12-12--12-12--
A |-2-2--5-X--7-X--5--2-2--5-X--7-X--5--2-2--5-X--7-X--5-X-12-12--12-12--12-12--12-12--
E |-0-0--3-X--5-X--3--0-0--3-X--5-X--3--0-0--3-X--5-X--3-X-10-10--10-10--10-10--10-10--

    E    G    A    G  E    G    A    G  E    G    A    G   D
   --------------------------------------------------------10-10--10-10--10-10--10-10--
   --------------------------------------------------------10-10--10-10--10-10--10-10--
   -1-1--4-X--6-X--4--1-1--4-X--6-X--4--1-1--4-X--6-X--4-X-11-11--11-11--11-11--11-11--
   -2-2--5-X--7-X--5--2-2--5-X--7-X--5--2-2--5-X--7-X--5-X-12-12--12-12--12-12--12-12--
   -2-2--5-X--7-X--5--2-2--5-X--7-X--5--2-2--5-X--7-X--5-X-12-12--12-12--12-12--12-12--
   -0-0--3-X--5-X--3--0-0--3-X--5-X--3--0-0--3-X--5-X--3-X-10-10--10-10--10-10--10-10--
   
      D
   -X-10-------------------------------------------------------------------------------|
   -X-10-------------------------------------------------------------------------------|
   -X-11-------------------------------------------------------------------------------|
   -X-12-------------------------------------------------------------------------------|
   -X-12-------------------------------------------------------------------------------|
   -X-10-------------------------------------------------------------------------------|


       - [MATTHEW]

e |------------------------------------------------------------------------------------
B |------------------------------------------------------------------------------------
G |------------------------------------------------------------------------------------
D |-0-2--0-2--0-2--0-2--0-2--0-2--0-22-0-2--0-2--0-2--0-22--0-2-0----------------------
A |---------------------------------------------------------------000000000000---------
E |------------------------------------------------------------------------------------

   ------------------------------------------------------------------------------------|
   -------------------------------------------0---------00-0-0-------------------------|
   ------------------------------------------------------------222222000000------------|
   -0-2--0-2--0-22-0-2--0-2--0-2--0-22-0-2--0-2--0-2--0-22-0-2-------------------------|
   ------------------------------------------------------------------------------------|
   ------------------------------------------------------------------------------------|



[SOLO] - [CALEB]

    E    G    A    G  E    G    A    G  E    G    A    G   D
e |--------------------------------------------------------10-10--10-10--10-10--10-10--
B |--------------------------------------------------------10-10--10-10--10-10--10-10--
G |-1-1--4-X--6-X--4--1-1--4-X--6-X--4--1-1--4-X--6-X--4-X-11-11--11-11--11-11--11-11--
D |-2-2--5-X--7-X--5--2-2--5-X--7-X--5--2-2--5-X--7-X--5-X-12-12--12-12--12-12--12-12--
A |-2-2--5-X--7-X--5--2-2--5-X--7-X--5--2-2--5-X--7-X--5-X-12-12--12-12--12-12--12-12--
E |-0-0--3-X--5-X--3--0-0--3-X--5-X--3--0-0--3-X--5-X--3-X-10-10--10-10--10-10--10-10--

    E    G    A    G  E    G    A    G  E    G    A    G   D
   --------------------------------------------------------10-10--10-10--10-10--10-10--|
   --------------------------------------------------------10-10--10-10--10-10--10-10--|
   -1-1--4-X--6-X--4--1-1--4-X--6-X--4--1-1--4-X--6-X--4-X-11-11--11-11--11-11--11-11--|
   -2-2--5-X--7-X--5--2-2--5-X--7-X--5--2-2--5-X--7-X--5-X-12-12--12-12--12-12--12-12--|
   -2-2--5-X--7-X--5--2-2--5-X--7-X--5--2-2--5-X--7-X--5-X-12-12--12-12--12-12--12-12--|
   -0-0--3-X--5-X--3--0-0--3-X--5-X--3--0-0--3-X--5-X--3-X-10-10--10-10--10-10--10-10--|


       - [MATTHEW]

e |---------------------------------------------------------------------------------------
B |------------0-----------------3b(5)-8-10-8-10-8-10-8-10-8-10-8-10-10b(12)10-10b(12)-
G |-2b(3)-2-0--2b(3)-2-0--2b(3)-2-0-------------------------------------------------------
D |---------------------------------------------------------------------------------------
A |---------------------------------------------------------------------------------------
E |---------------------------------------------------------------------------------------

   -----------12--------12--------12-------12-------12--15p12--12-------------------------
   -12-15b(17)---15b(17)---15b(17)--15b(17)---15b(17)--------15--15-12-15p12--12----------
   -------------------------------------------------------------------------14--14-12-----
   ---------------------------------------------------------------------------------------
   ---------------------------------------------------------------------------------------
   ---------------------------------------------------------------------------------------

   -------------------------X-X-----------------------------------------------------------|
   -------------------------X-X-----------------------------------------------------------|
   -14b(16)r14p12-14b(16)---X-X-----------------------------------------------------------|
   -------------------------X-X-----------------------------------------------------------|
   -------------------------X-X-----------------------------------------------------------|
   -------------------------X-X-----------------------------------------------------------|



[OUTRO] - [CALEB] + [MATTHEW]

      "...You with your switchblade posse,"    "...I'll get my guns from the sou-uth,"
    F                                         Bb                                     F
e |-1-----------------------------------------6--------------------------------------1-
B |-1-----------------------------------------6--------------------------------------1-
G |-2-----------------------------------------7--------------------------------------2-
D |-3-----------------------------------------8--------------------------------------3-
A |-3-----------------------------------------8--------------------------------------3-
E |-1-----------------------------------------6--------------------------------------1-

"...We'll take to the yard like a cockfight,"    "...Four kicks whose strutting now-ow.,"
                                              Bb                      Bb
   -------------------------------------------6-----------------------X----------------|
   -------------------------------------------6-----------------------X----------------|
   -------------------------------------------7-----------------------X----------------|
   -------------------------------------------8-----------------------X----------------|
   -------------------------------------------8-----------------------X----------------|
   -------------------------------------------6-----------------------X----------------|






****************************************************************************************
****************************************************************************************
****************************************************************************************
Comments