Kings Of Leon - Four Kicks Chords & Tabs

 

Four Kicks Chords & Tabs

Kings Of Leon Chords & Tabs

Version: 2 Type: Bass Tab 0 ratings
1 star 2 stars 3 stars 4 stars 5 stars
comments

Four Kicks Bass Tab

   
standard tuning dudes

*guitar intro*
*bass and drums kick in*

G-----------------------------------|
D-----------------------------------|
A---------------------------555555~-|
E-0-00-353-0-00-353-0-00-353--------|

*huffman don't take no nonsense*

G------------------------------|
D------------------------------|
A---------------------------5~-|
E-0-00-353-0-00-353-0-00-353---|

*he's here to rectify*

G------------------------------|
D------------------------------|
A---------------------------5~-|
E-0-00-353-0-00-353-0-00-353---|

*He has a black coat buckle*

[ Tab from: http://www.guitartabs.cc/tabs/k/kings_of_leon/four_kicks_btab_ver_2.html ]
G------------------------------|
D------------------------------|
A---------------------------5~-|
E-0-00-353-0-00-353-0-00-353---|

*I can see the fire in his eyes*

G--------------------------------|
D--------------------------------|
A--------------------------------| *you and your switchblade posse*
E-0-00-353-0-00-353-0-00-353--1~-|

G---
D---
A--1~ *we get our guns from the south*
E---

G---
D---
A--- *you take to the yard like a cockfight*
E--1~

G---
D---
A--1~ *four kicks who's strutting now*
E---


CHORUS AND SOLO
G-----------------------------------|
D-----------------------------------|
A-----------------------------------|
E-0-00-353-0-00-353-0-00-353-55555~-|

its all pretty much the same all the way through so, erm.... enjoy!
Comments