Kings Of Leon - Dusty Chords & Tabs

 

Dusty Chords & Tabs

Kings Of Leon Chords & Tabs

Version: 1 Type: Tab 0 ratings
1 star 2 stars 3 stars 4 stars 5 stars
comments

Dusty Tab

   
Kings of Leon - Dusty

By Klimbe
kristoffer__karlsson@hotmail.com
[ Tab from: http://www.guitartabs.cc/tabs/k/kings_of_leon/dusty_tab.html ]
Main riff:
    
     E                                                     A                E
e--0--0--------------0-0---------------0-0-----------------0--?--3-0---0----0--
B--0--0-------3-3-1--0-0--------3-3-1--0-0----------3-3-1--2--?------3------0--
G--1--1--------------1-1---------------1-1-----------------2--?-------------1--
D--2--2--------------2-2---------------2-2-----------------2--?-------------2--
A--2--2--------------2-2---------------2-2-----------------0--?-------------2--
E--0--0--------------0-0---------------0-0--------------------?-------------2--



01:44
"I'v been looking for something..."

e-3--3-3-3-3-0-3--5-3-5-3--3f3b-0---------0-0----------
B----------------------------------------3-3----3-0----
G------------------------------------------------------
D------------------------------------------------------
A------------------------------------------------------
E------------------------------------------------------


Comments