Kings Of Leon - Day Old Blues Chords & Tabs

 

Day Old Blues Chords & Tabs

Kings Of Leon Chords & Tabs

Version: 3 Type: Tab 0 ratings
1 star 2 stars 3 stars 4 stars 5 stars
comments

Day Old Blues Tab

   
---------------------------------------------------------------------------
Song:Day Old Blues
Artist:Kings of Leon
Album:A-Ha Shake Heartbreak
Tabber:Alexthebeatle
---------------------------------------------------------------------------

INTRO:

    Badd11    Aadd9     E
|---0--0--0-0-0--0--0-0-0--0--------|
|---0--0--0-0-0--0--0-0-0--0--------|
|---8--8--8-8s6--6--6-6s1--1--------|
|---9--9--9-9s7--7--7-7s2--2--------|
|---9--9--9-9s7--7--7-7s2--2--------|
|---0--0--0-0-0--0--0-0-0--0--------|

    Badd11    Aadd9     E
|---0--0--0-0-0--0--0-0-0--0--------|
|---0--0--0-0-0--0--0-0-0--0--------|
|---8--8--8-8s6--6--6-6s1--1--------|
|---9--9--9-9s7--7--7-7s2--2--------|
|---9--9--9-9s7--7--7-7s2--2--------|
|---0--0--0-0-0--0--0-0-0--0--------|

    Aadd9     Badd11     Aadd9 E
|---0--0--0-0-0--0--0--0-0--0--0----|
|---0--0--0-0-0--0--0--0-0--0--0----|
|---6--6--6-6s8--8--8--8s6--6--1----|
|---7--7--7-7s9--9--9--9s7--7--2----|
|---7--7--7-7s9--9--9--9s7--7--2----|
|---0--0--0-0-0--0--0--0s0--0--0----|


VERSE 1:
play the chords of the intro

[ Tab from: http://www.guitartabs.cc/tabs/k/kings_of_leon/day_old_blues_tab_ver_3.html ]
CHORUS 1:(x4)
    E
    Day old day old day old day old day old day old
|---0--0--0--0--0--0--0--0--0--0--0--0--0--0--0--0--|
|---0--0--0--0--0--0--0--0--0--0--0--0--0--0--0--0--|
|---1--1--1--1--1--1--1--1--1--1--1--1--1--1--1--1--|
|---2--2--2--2--2--2--2--2--2--2--2--2--2--2--2--2--|
|---2--2--2--2--2--2--2--2--2--2--2--2--2--2--2--2--|
|---0--0--0--0--0--0--0--0--0--0--0--0--0--0--0--0--|

    Day old day old day old bluuuues
|---0--0--0--0--0--0--0--0--0--0--0--|
|---0--0--0--0--0--0--0--0--0--0--0--|
|---1--1--1--1--1--1--1--1--1--1--1--|
|---2--2--2--2--2--2--2--2--2--2--2--|
|---2--2--2--2--2--2--2--2--2--2--2--|
|---0--0--0--0--0--0--0--0--0--0--0--|


VERSE 2:same chords as in verse 1


CHORUS 3:same chords as in chorus 1.Then,there's no another verse,
 there'sa bridge:


BRIDGE:
    F#                      G#
|---2--2--2--2--2--2--2--2--4--4--4--4--4--4--4--4----|
|---2--2--2--2--2--2--2--2--4--4--4--4--4--4--4--4----|
|---3--3--3--3--3--3--3--3--5--5--5--5--5--5--5--5----|
|---4--4--4--4--4--4--4--4--6--6--6--6--6--6--6--6----|
|---4--4--4--4--4--4--4--4--6--6--6--6--6--6--6--6----|
|---2--2--2--2--2--2--2--2--4--4--4--4--4--4--4--4----|

   F#                      G#
|---2--2--2--2--2--2--2--2--4--4--4--4--4--4--4--4----|
|---2--2--2--2--2--2--2--2--4--4--4--4--4--4--4--4----|
|---3--3--3--3--3--3--3--3--5--5--5--5--5--5--5--5----|
|---4--4--4--4--4--4--4--4--6--6--6--6--6--6--6--6----|
|---4--4--4--4--4--4--4--4--6--6--6--6--6--6--6--6----|
|---2--2--2--2--2--2--2--2--4--4--4--4--4--4--4--4----|

then again another verse and the chorus.


-----------------------------------------------------------------------------
LONG LIFE TO A-HA SAKE HEARTBREAK.
-----------------------------------------------------------------------------
Comments