Kings Of Leon - Day Old Blues Chords & Tabs

 

Day Old Blues Chords & Tabs

Kings Of Leon Chords & Tabs

Version: 2 Type: Tab 0 ratings
1 star 2 stars 3 stars 4 stars 5 stars
comments

Day Old Blues Tab

   
#----------------------------------PLEASE NOTE---------------------------------#
#This file is the author's own work and represents their interpretation of the #
#song. You may only use this file for private study, scholarship, or research. #
#------------------------------------------------------------------------------#

Group/Singer Name:      Kings Of Leon
Song:                   "Day Old Blues"
Additional Info:        Aha Shake Heartbreak - Track 09
Tuning:                 Standard - [EADGBe]
Tabbed By:              Dean Hill - Comments, Suggestions? the.scotsman@blueyonder.co.uk


[Chords Used]   E(022100); F#m11/E(044200); Emaj7(066400); E*([12][14][14][13][12][12])
                F#m(X9[11][11][10]9); E**(X7999X); A(X02220); B11/A(X04440) + SEE TAB


[Intro]         | 1     & 2 & 3 & 4 &        | 1 & 2 & 3 & 4 & |
                |----------------------------|-----------------|
                | Emaj7           F#m11/E    |     E           |
                | Emaj7           F#m11/E    |   E             |
                | F#m11/E         Emaj7      |     E           |
                | Emaj7           F#m11/E    |   E             |


*************************************
*KINGS OF LEON - DAY OLD BLUES - TAB*
*************************************



b  -  Bend
sb -  Slow Bend
() -  Bracketed numbers are the note you bend up to
h  -  Hammer On
p  -  Pull Off
r  -  Return
/  -  Slide Up
  -  Slide Down
d  -  Strum Down
u  -  Strum Up
PM -  Palm Mute
 -  Natural Harmonics
^  -  Vibrato






[INTRO] - (Acoustic, MATTHEW)

    Emaj7           F#m11/E   E                         Emaj7           F#m11/E   E
e |------------------------------0----------------------0----0---0-0----0---0-0---0----
B |-0----0---0-0----0---0-0------0----------------------0----0---0-0----0---0-0---0----
G |-4----4---4-4----2---2-2---1--1----------------------4----4---4-4----2---2-2---1----
D |-6----6---6-6----4---4-4---2--2----------------------6----6---6-6----4---4-4---2----
A |-6----6---6-6----4---4-4---2--2----------------------6----6---6-6----4---4-4---2----
E |------------------------------0------------------------------------------------0----

    F#m11/E         Emaj7        E                      Emaj7           F#m11/E   E
   -0----0---0-0----0---0--------0----------------------0----0---0-0----0---0-0---0----
   -0----0---0-0----0---0--------0----------------------0----0---0-0----0---0-0---0----
   -2----2---2-2----4---4--------1----------------------4----4---4-4----2---2-2---1----
   -4----4---4-4----6---6-6------2----------------------6----6---6-6----4---4-4---2----
   -4----4---4-4----6------------2----------------------6----6---6-6----4---4-4---2----
   ---------------------------0--0------------------------------------------------0----



[VERSE 1] - (Acoustic, MATTHEW)

    Emaj7           F#m11/E   E                         Emaj7           F#m11/E   E
e |-0----0---0-0----0---0-0------0----------------------0----0---0-0----0---0-0---0----
B |-0----0---0-0----0---0-0------0----------------------0----0---0-0----0---0-0---0----
G |-4----4---4-4----2---2-2---1--1----------------------4----4---4-4----2---2-2---1----
D |-6----6---6-6----4---4-4---2--2----------------------6----6---6-6----4---4-4---2----
A |-6----6---6-6----4---4-4---2--2----------------------6----6---6-6----4---4-4---2----
E |-0----0---0-0----0---0-0---0--0----------------------0----0---0-0----0---0-0---0----

    F#m11/E         Emaj7        E                      Emaj7           F#m11/E   E
   -0----0---0-0----0---0--------0----------------------0----0---0-0----0---------0----|
   -0----0---0-0----0---0--------0----------------------0----0---0-0----0---------0----|
   -2----2---2-2----4---4-4------1----------------------4----4---4-4----2---------1----|
   -4----4---4-4----6---6-6------2----------------------6----6---6-6----4---------2----|
   -4----4---4-4----6------------2----------------------6----6---6-6----4---------2----|
   -0----0---0-0----0---------0--0----------------------0----0---0-0----0---------0----|



[LINK] - (Acoustic, MATTHEW) + (Clean Electric 2, CALEB)

    Emaj7           F#m11/E   E
e |-0----0---0-0----0---0-0------0-----------------------------------------------------|
B |-0----0---0-0----0---0-0------0-----------------------------------------------------|
G |-4----4---4-4----2---2-2---1--1-----------------------------------------------------|
D |-6----6---6-6----4---4-4---2--2-----------------------------------------------------|
A |-6----6---6-6----4---4-4---2--2-----------------------------------------------------|
E |-0----0---0-0----0---0-0---0--0-----------------------------------------------------|



[VERSE 2] - (Acoustic, MATTHEW) + (Clean Electric 2, CALEB)
            [The clean electric is REALLY, REALLY low volume, but it IS there!)

    Emaj7           F#m11/E   E                         Emaj7           F#m11/E   E
e |-0----0---0-0----0---0-0------0----------------------0----0---0-0----0---0-0---0----
B |-0----0---0-0----0---0-0------0----------------------0----0---0-0----0---0-0---0----
G |-4----4---4-4----2---2-2---1--1----------------------4----4---4-4----2---2-2---1----
D |-6----6---6-6----4---4-4---2--2----------------------6----6---6-6----4---4-4---2----
A |-6----6---6-6----4---4-4---2--2----------------------6----6---6-6----4---4-4---2----
E |-0----0---0-0----0---0-0---0--0----------------------0----0---0-0----0---0-0---0----

(These brackets---------¬-¬---¬ mean the electric plays the full chords)

    F#m11/E         Emaj7        E                      Emaj7           F#m11/E   E
   -0----0---0-0----0---0(0)-----0----------------------0----0---0-0----0-----0---0----|
   -0----0---0-0----0---0(0)-----0----------------------0----0---0-0----0-----0---0----|
   -2----2---2-2----4---4-4--(1)-1----------------------4----4---4-4----2-----2---1----|
   -4----4---4-4----6---6-6--(2)-2----------------------6----6---6-6----4-----4---2----|
   -4----4---4-4----6--(6-6)-(2)-2----------------------6----6---6-6----4-----4---2----|
   -0----0---0-0----0--(0-0)--0--0----------------------0----0---0-0----0-----0---0----|



[CHORUS] - (Clean Electric 1, MATTHEW)

e |------------------------------------------------------------------------------------|
B |-10/12--12--12-1210--10--10-10--9-9------------10/12--12--12-1210--10--10-10--9-9-|
G |-11/13--13--13-1311--11--11-11--9-9------------11/13--13--13-1311--11--11-11--9-9-|
D |------------------------------------------------------------------------------------|
A |------------------------------------------------------------------------------------|
E |------------------------------------------------------------------------------------|
                                                   E         F#m            E
  |------------------------------------------------12--12--X--9---9---9--9--7----------|
  |-10/12--12--12-1210--10--10-10--9-9------------12--12--X-10--10--10-10--9----------|
  |-11/13--13--13-1311--11--11-11--9-9------------13--13--X-11--11--11-11--9----------|
  |------------------------------------------------------------------------------------|
  |------------------------------------------------------------------------------------|
  |------------------------------------------------------------------------------------|



[LINK] - (Acoustic, MATTHEW) + (Clean Electric 2, CALEB)

    Emaj7           F#m11/E   E
e |-0----0---0-0----0---0-0---0--0-----------------------------------------------------|
B |-0----0---0-0----0---0-0---0--0-----------------------------------------------------|
G |-4----4---4-4----2---2-2---1--1-----------------------------------------------------|
D |-6----6---6-6----4---4-4---2--2-----------------------------------------------------|
A |-6----6---6-6----4---4-4---2--2-----------------------------------------------------|
E |-0----0---0-0----0---0-0---0--0-----------------------------------------------------|



[VERSE 2] - (Acoustic, MATTHEW)

    Emaj7           F#m11/E   E                         Emaj7           F#m11/E   E
e |-0----0---0-0----0---0-0------0----------------------0----0---0-0----0---0-0---0----
B |-0----0---0-0----0---0-0---0--0----------------------0----0---0-0----0---0-0---0----
G |-4----4---4-4----2---2-2---1--1----------------------4----4---4-4----2---2-2---1----
D |-6----6---6-6----4---4-4---2--2----------------------6----6---6-6----4---4-4---2----
A |-6----6---6-6----4---4-4---2--2----------------------6----6---6-6----4---4-4---2----
E |-0----0---0-0----0---0-0---0--0----------------------0----0---0-0----0---0-0---0----
[ Tab from: http://www.guitartabs.cc/tabs/k/kings_of_leon/day_old_blues_tab_ver_2.html ]
    F#m11/E         Emaj7        E                      Emaj7           F#m11/E   E
   -0----0---0-0----0---0--------0----------------------0----0---0-0----0---0-0---0----|
   -0----0---0-0----0---0--------0----------------------0----0---0-0----0---0-0---0----|
   -2----2---2-2----4---4-4------1----------------------4----4---4-4----2---2-2---1----|
   -4----4---4-4----6---6-6------2----------------------6----6---6-6----4---4-4---2----|
   -4----4---4-4----6------------2----------------------6----6---6-6----4---4-4---2----|
   -0----0---0-0----0---------0--0----------------------0----0---0-0----0---0-0---0----|


          - (Clean Electric 2, CALEB)

    Emaj7           F#m11/E   E                         Emaj7           F#m11/E   E
e |-0----0---0-0----0---0-0---0--0----------------------0----0---0-0----0---------0----
B |-0----0---0-0----0---0-0---0--0----------------------0----0---0-0----0---------0----
G |-4----4---4-4----2---2-2---1--1----------------------4----4---4-4----2---------1----
D |-6----6---6-6----4---4-4---2--2----------------------6----6---6-6----4---------2----
A |-6----6---6-6----4---4-4---2--2----------------------6----6---6-6----4---------2----
E |-0----0---0-0----0---0-0---0--0----------------------0----0---0-0----0---------0----

    F#m11/E         Emaj7     E                         Emaj7           F#m11/E   E
   -0----0---0-0----0---0-0---0--0----------------------0----0---0-0----0---------0----|
   -0----0---0-0----0---0-0---0--0----------------------0----0---0-0----0---------0----|
   -2----2---2-2----4---4-4---1--1----------------------4----4---4-4----2---------1----|
   -4----4---4-4----6---6-6---2--2----------------------6----6---6-6----4---------2----|
   -4----4---4-4----6---6-6---2--2----------------------6----6---6-6----4---------2----|
   -0----0---0-0----0---0-0---0--0----------------------0----0---0-0----0---------0----|



[CHORUS] - (Clean Electric 1, MATTHEW)

e |------------------------------------------------------------------------------------|
B |-12--12--12-1210--10--10-10--9-9------------10/12--12--12-1210--10--10-10--9-9----|
G |-13--13--13-1311--11--11-11--9-9------------11/13--13--13-1311--11--11-11--9-9----|
D |------------------------------------------------------------------------------------|
A |------------------------------------------------------------------------------------|
E |------------------------------------------------------------------------------------|
                                                   E                 F#m        E
  |------------------------------------------------12--12--12-12------9---9--9---------|
  |-12--12--12-12--10--10-10--9-9------------------12--12--12-12-----10--10-10--9-9----|
  |-13--13--13-13--11--11-11--9-9------------------13--13--13-13-----11--11-11--9-9----|
  |------------------------------------------------14--14--14-14-----11--11-11--9-9----|
  |------------------------------------------------14--14--14-14------9---9--9--7-7----|
  |------------------------------------------------12--12--12-12-----------------------|



[MIDDLE 8] - (Clean Electric 2, CALEB) *(Emphasise these notes)

    A               B11/A            A               B11/A
e |-0---------------0----------------0-------------------------------------------------|
B |-2---2---2---2---4---4-4-4-4-4---42---2---2---2---4-4-4-4-4-4-4---------------------|
G |-2---2---2---2---4---4-4-4-4-4---42---2---2---2---4-4-4-4-4-4-4---------------------|
D |-2---2---2---2---4---4-4-4-4-4---42---2---2---2---4-4-4-4-4-4-4---------------------|
A |-0---0---0---0---0---0-0-0-0-0---00---0---0---0---0-0-0-0-0-0-0---------------------|
E |------------------------------------------------------------------------------------|
    *               *                *


           - (Clean Electric 1, MATTHEW)
          
    A               B11/A           A               B11/A
e |-0---0---0---0---0---0---0---0--00-0-0-0-0-0-0-0-0-0-0-0-0-0-0-0--------------------|
B |-2---2---2---2---4---4---4---4--42-2-2-2-2-2-2-2-4-4-4-4-4-4-4-4--------------------|
G |-2---2---2---2---4---4---4---4--42-2-2-2-2-2-2-2-4-4-4-4-4-4-4-4--------------------|
D |-2---2---2---2---4---4---4---4--42-2-2-2-2-2-2-2-4-4-4-4-4-4-4-4--------------------|
A |-0---0---0---0---0---0---0---0--00-0-0-0-0-0-0-0-0-0-0-0-0-0-0-0--------------------|
E |------------------------------------------------------------------------------------|



[LINK] - (Acoustic, MATTHEW) + (Clean Electric 2, CALEB)

    Emaj7           F#m11/E   E
e |-0----0---0-0----0---0-0---0--0-----------------------------------------------------|
B |-0----0---0-0----0---0-0---0--0-----------------------------------------------------|
G |-4----4---4-4----2---2-2---1--1-----------------------------------------------------|
D |-6----6---6-6----4---4-4---2--2-----------------------------------------------------|
A |-6----6---6-6----4---4-4---2--2-----------------------------------------------------|
E |-0----0---0-0----0---0-0---0--0-----------------------------------------------------|



[OUTRO] - (Clean Electric 2, CALEB)

    Emaj7           F#m11/E   E                         Emaj7           F#m11/E   E
e |-0----0---0-0----0---0-0---0--0----------------------0----0---0-0----0---0-0---0-0--
B |-0----0---0-0----0---0-0---0--0----------------------0----0---0-0----0---0-0---0-0--
G |-4----4---4-4----2---2-2---1--1----------------------4----4---4-4----2---2-2---1-1--
D |-6----6---6-6----4---4-4---2--2----------------------6----6---6-6----4---4-4---2-2--
A |-6----6---6-6----4---4-4---2--2----------------------6----6---6-6----4---4-4---2-2--
E |-0----0---0-0----0---0-0---0--0----------------------0----0---0-0----0---0-0---0-0--

    Emaj7           F#m11/E   E                         Emaj7           F#m11/E   E
   -0----0---0-0----0---0-0---0--0----------------------0----0---0-0----0---0-0---0-0--
   -0----0---0-0----0---0-0---0--0----------------------0----0---0-0----0---0-0---0-0--
   -4----4---4-4----2---2-2---1--1----------------------4----4---4-4----2---2-2---1-1--
   -6----6---6-6----4---4-4---2--2----------------------6----6---6-6----4---4-4---2-2--
   -6----6---6-6----4---4-4---2--2----------------------6----6---6-6----4---4-4---2-2--
   -0----0---0-0----0---0-0---0--0----------------------0----0---0-0----0---0-0---0-0--

    Emaj7           F#m11/E   E                         Emaj7           F#m11/E   E
   -0----0---0-0----0---0-0---0--0----------------------0----0---0-0----0---0-0---0----|
   -0----0---0-0----0---0-0---0--0----------------------0----0---0-0----0---0-0---0----|
   -4----4---4-4----2---2-2---1--1----------------------4----4---4-4----2---2-2---1----|
   -6----6---6-6----4---4-4---2--2----------------------6----6---6-6----4---4-4---2----|
   -6----6---6-6----4---4-4---2--2----------------------6----6---6-6----4---4-4---2----|
   -0----0---0-0----0---0-0---0--0----------------------0----0---0-0----0---0-0---0----|


        - (Clean Electric 1, MATTHEW)

e |------------------------------------------------------------------------------------|
B |-12--12--12-12--10--10-10--9-9--------------------12--12--12-12---10--10-10--9-9----|
G |-13--13--13-13--11--11-11--9-9--------------------13--13--13-13---11--11-11--9-9----|
D |------------------------------------------------------------------------------------|
A |------------------------------------------------------------------------------------|
E |------------------------------------------------------------------------------------|

  |------------------------------------------------------------------------------------|
  |-12--12--12-12--10--10-10--9-9-----------------10/12--12--12-12---10--10-10--9-9----|
  |-13--13--13-13--11--11-11--9-9-----------------11/13--13--13-13---11--11-11--9-9----|
  |------------------------------------------------------------------------------------|
  |------------------------------------------------------------------------------------|
  |------------------------------------------------------------------------------------|
    E              F#m        E                    E                 F#m        E
  |-12--12--12-12---9---9--9-----------------------12--12--12-12------9---9--9---------|
  |-12--12--12-12--10--10-10--9-9------------------12--12--12-12-----10--10-10--9------|
  |-13--13--13-13--11--11-11--9-9------------------13--13--13-13-----11--11-11--9------|
  |-14--14--14-14--11--11-11--9-9------------------14--14--14-14-----11--11-11--9------|
  |-14--14--14-14---9---9--9--7-7------------------14--14--14-14------9---9--9--7------|
  |-12--12--12-12----------------------------------12--12--12-12-----------------------|






****************************************************************************************
****************************************************************************************
****************************************************************************************


Comments