Kings Of Leon - California Waiting Chords & Tabs

 

California Waiting Chords & Tabs

Kings Of Leon Chords & Tabs

Version: 4 Type: Tab 0 ratings
1 star 2 stars 3 stars 4 stars 5 stars
comments

California Waiting Tab

Sory I cudnt work out guitar 2 (except the intro)
Tuning: Drop D

Intro
e|----------------------------------------|              
B|--3h5-3---3h5-3--------------10-12-10---|
G|--------4-------4--4s11-11-11---------11|        
D|----------------------------------------|
A|----------------------------------------|
D|----------------------------------------|

No Guitar in Verse 1

Chorus 
e|---------------------------------------------------------------------------|
B|-12-12-10-10---------------------------------------------------------------|
G|-12-12-10-10---------------------------------------------------------------|
D|-12-12-10-10-5-5-5-5-5-0-0-0-0-0-5-5-5-5-5-0-0-0-0-0-5-5-5-5-5-0-0-0-0-0---|
A|-10-10-8--8--5-5-5-5-5-0-0-0-0-0-5-5-5-5-5-0-0-0-0-0-5-5-5-5-5-0-0-0-0-0---|
D|-------------5-5-5-5-5-0-0-0-0-0-5-5-5-5-5-0-0-0-0-0-5-5-5-5-5-0-0-0-0-0---|
 
e|---------------------------------------------------------------------------|
B|---------------------------------------------------------------------------|
G|---------------------------------------------------------------------------|
D|-------------5-5-5-5-5-0-0-0-0-0-------------------------------------------|
A|-------------5-5-5-5-5-0-0-0-0-0-------------------------------------------|
D|-------------5-5-5-5-5-0-0-0-0-0-------------------------------------------|

Verse 2
e|---------------------------------------------------------------------------|
B|---------------------------------------------------------------------------|
G|---------------------------------------------------------------------------|
D|-5---------------------------0-0-0-0-0-0-0-5-5-5-5-5-5-5-4-2-0-4-7-0-------|
A|-5---------------------------0-0-0-0-0-0-0-5-5-5-5-5-5-5-4-2---------------|
D|-5-5-5-5-5-5-5-5-5-5-5-5-4-2-0-0-0-0-0-0-0-5-5-5-5-5-5-5-4-2---------------|

e|---------------------------------------------------------------------------|
B|---------------------------------------------------------------------------|
G|---------------------------------------------------------------------------|
D|-5-5-5-5-5-5-5-4-2-0-4-7---------------------------------------------------|
A|-5-5-5-5-5-5-5-4-2---------------------------------------------------------|
D|-5-5-5-5-5-5-5-4-2---------------------------------------------------------|
[ Tab from: http://www.guitartabs.cc/tabs/k/kings_of_leon/california_waiting_tab_ver_4.html ]
Break
e|---------------------------------------------------------------------------|
B|---------------------------------------------------------------------------|
G|---------------------------------------------------------------------------|
D|-5-0-5-0-5---------------------------0-------------------------------------|
A|-5-0-5-0-5---------------------------0-------------------------------------|
D|-5-0-5-0-5-5-5-5-5-5-5-5-5-5-5-5-4-2-0-0-0-0-0-0-0-0-0-0-0-0-0-0-0-0-------|

e|-------------------------------------------------------------------|
B|-------------------------------------------------------------------|
G|-------------------------------------------------------------------|
D|-5---------------------------0-------------------------------------|
A|-5---------------------------0-------------------------------------|
D|-5-5-5-5-5-5-5-5-5-5-5-5-4-2-0-0-0-0-0-0-0-0-0-0-0-0-0-0-----------|

Chorus (almost spoken)
e|---------------------------------------------------------------------------|
B|---------------------------------------------------------------------------|
G|---------------------------------------------------------------------------|
D|-------------5---------0----------X-8--------------------------------------|
A|-------------5---------0---------------------------------------------------|
D|-------------5---------0---------------------------------------------------|

e|---------------------------------------------------------------------------|
B|---------------------------------------------------------------------------|
G|---------------------------------------------------------------------------|
D|-------------5-5-5-5-5-0-0-0-0-0--X-8--------------------------------------|
A|-------------5-5-5-5-5-0-0-0-0-0-------------------------------------------|
D|-------------5-5-5-5-5-0-0-0-0-0-------------------------------------------|

 End On
e|---------------------------------------------------------------------------|
B|-12------------------------------------------------------------------------|
G|-12------------------------------------------------------------------------|
D|-12------------------------------------------------------------------------|
A|-10------------------------------------------------------------------------|
D|---------------------------------------------------------------------------|
Comments