Kings Of Leon - Black Thumbnail Chords & Tabs

 

Black Thumbnail Chords & Tabs

Kings Of Leon Chords & Tabs

Version: 2 Type: Tab 0 ratings
1 star 2 stars 3 stars 4 stars 5 stars
comments

Black Thumbnail Tab

   
Verse

This song only uses two chords. It is in the key of E and when he changes chords he 
to D

The E Chord looks like this
e----12---------------|
B----12---------------|
G----13---------------|
D----14---------------|
A----14---------------|
E----12---------------|

The D Chord looks like this
e----10---------------|
B----10---------------|
G----11---------------|
D----12---------------|
A----12---------------|
E----10---------------|

Iím not going to tab out the strum pattern or when the chords change. Itís easy enough 
figure out just listening to it.

Chorus

I like playing power chords for the chorus

e-------------------------------------------------------------------|
B-------------------------------------------------------------------|
G-9-9-9-9-9-9-9-9-9-9-9-9-9-9-9-9-9-9-9-9-9-9-9-9-7-7-----7---7-----|
D-9-9-9-9-9-9-9-9-9-9-9-9-9-9-9-9-9-9-9-9-9-9-9-9-7-7-----7---7-----|
A-0-7-0-7-0-7-0-7-0-7-0-7-0-7-0-7-0-7-0-7-0-7-0-7-5-5-----5---5-----|
E-------------------------------------------------------------------|

Solo
[ Tab from: http://www.guitartabs.cc/tabs/k/kings_of_leon/black_thumbnail_tab_ver_2.html ]
e-12b-12b-12b-12b-12b-12b-14b-14b-14b-14b-14b-14b-------|
B-15b-15b-15b-15b-15b-15b-17b-17b-17b-17b-17b-17b-------|
G-------------------------------------------------------|
D-------------------------------------------------------|
A-------------------------------------------------------|
E-------------------------------------------------------|

e-16b-16b-16b-16b-16b-16b-17b-17b-17b-17b-17b-17b-------|
B-19b-19b-19b-19b-19b-19b-20b-20b-20b-20b-20b-20b-------|
G-------------------------------------------------------|
D-------------------------------------------------------|
A-------------------------------------------------------|
E-------------------------------------------------------|

e-------------------------------------------------------|
B-77777777777777777777777-55555555555555555555555-------|
G-------------------------------------------------------|
D-------------------------------------------------------|
A-------------------------------------------------------|
E-------------------------------------------------------|

e------------------------------12b-12b-12b-12b-12b-12b--|
B-101010101010-121212121212-14-15b-15b-15b-15b-15b-15b--|
G-------------------------------------------------------|
D-------------------------------------------------------|
A-------------------------------------------------------|
E-------------------------------------------------------|

Please Rate/Comment
Comments