Kings Of Leon - Beautiful War Chords & Tabs

 

Beautiful War Chords & Tabs

Kings Of Leon Chords & Tabs

Version: 1 Type: Bass Tab 0 ratings
1 star 2 stars 3 stars 4 stars 5 stars
comments

Beautiful War Bass Tab

Intro
G--------------------------|
D--------------------------|
A--------------------------|    x8
E-0-5-0-5--5-5-5-5---------|

Verse
G----------------------|
D----------------------|
A----------------------|    x4
E-0-5-0-5--5-5-5-5-----|

G------------------------------|
D------------------------------|
A------------------------------|
E-0-5-0-10--10-10-10-10--------|

G----------------------------------|
D----------------------------------|
A----------------------------------|    x3
E-0-10-0-10--10-10-10-10-----------|

G-------------------------|
D-------------------------|
A-------------------------|
E-0-10-0-5--5-5-5-5-------|

G---------------------------|
D---------------------------|
A---------------------------|    x7
E-0-5-0-5--5-5-5-5----------|

G------------------------------|
D------------------------------|
A------------------------------|
E-0-5-0-10--10-10-10-10--------|

G----------------------------------|
D----------------------------------|
A----------------------------------|    x3
E-0-10-0-10--10-10-10-10-----------|

G-------------------------|
D-------------------------|
A-------------------------|
E-0-10-0-5--5-5-5-5-------|

G---------------------------|
D---------------------------|
A---------------------------|    x3
E-0-5-0-5--5-5-5-5----------|

Pre-chorus
G-------------------------------------------------------------|
D-------------------------------------------------------------|
A-------------------------------------------------------------|
E-5/12--12-12-12-12--12-12-12-12--12-12-12-12--12-12-12-10----|

G------------------------------------------|
D------------------------------------------|
A------------------------------------------|
E-10-10-10-10--10-10-10-10--10-10-10-10----|

G----------------------------------------|
D----------------------------------------|
A----------------------------------------|
E-0-5-0-5--5-5-5-5-----0-5-0-5--5-5-5/---|

Chorus
G---------------|
D---------------|
A---------------|
E-0\5--5-5-5-5--|

G---------------------------|
D---------------------------|
A---------------------------|    x3
E-0-5-0-5--5-5-5-5----------|

G------------------------------|
D------------------------------|
A------------------------------|
E-0-5-0-10--10-10-10-10--------|
[ Tab from: http://www.guitartabs.cc/tabs/k/kings_of_leon/beautiful_war_btab.html ]
G----------------------------------|
D----------------------------------|
A----------------------------------|    x3
E-0-10-0-10--10-10-10-10-----------|

G-------------------------|
D-------------------------|
A-------------------------|
E-0-10-0-5--5-5-5-5-------|

G---------------------------|
D---------------------------|
A---------------------------|    x3
E-0-5-0-5--5-5-5-5----------|

Verse
G---------------------------|
D---------------------------|
A---------------------------|    x4
E-0-5-0-5--5-5-5-5----------|

G-----------------------------|
D-----------------------------|
A-----------------------------|
E-0-5-0-10--10-10-10-10-------|

G----------------------------------|
D----------------------------------|
A----------------------------------|    x3
E-0-10-0-10--10-10-10-10-----------|

G-------------------------|
D-------------------------|
A-------------------------|
E-0-10-0-5--5-5-5-5-------|

G---------------------------|
D---------------------------|
A---------------------------|    x3
E-0-5-0-5--5-5-5-5----------|

Pre-chorus (Same as before)

Chorus X2

Bridge
G-----------------------|
D-----------------------|
A-----------------------|
E-0-5-0-2--2-2-2-2------|

G---------------------------|
D---------------------------|
A---------------------------|    x2
E-0-2-0-2--2-2-2-2----------|

G-----------------------|
D-----------------------|
A-----------------------|
E-0-2-0-2--2-2-2/-------|

G-----------------------|
D-----------------------|
A-----------------------|
E-0\5--5-5-5-5----------|

G--------------------------|
D--------------------------|
A--------------------------|   x3
E-0-5-0-5--5-5-5-5---------|

G-----------------------|
D-----------------------|
A-----------------------|
E-0-5-0-2--2-2-2-2------|

G-----------------------|
D-----------------------|
A-----------------------|
E-0-2-0-2--2-2-2-2------|

G-----------------------------|
D-----------------------------|
A-----------------------------|
E-0-2-0-10--10-10-10-10-------|

G------------------------------|
D------------------------------|
A------------------------------|
E-0-10-0-10--10-10-10-10/12----|

[Bass Rests For The Interlude Back Into The Chorus]

Chorus x2

Outro
G-----------|
D-----------|
A-----------|
E-0-5-0-5---|

P.S. In the live version, he often does -0-3-0-5--5-5-5-5 instead of -0-5-0-5--5-5-5-5 
like in the studio version
Comments