Kings Of Leon - Beach Side Chords & Tabs

 

Beach Side Chords & Tabs

Kings Of Leon Chords & Tabs

Version: 1 Type: Bass Tab 0 ratings
1 star 2 stars 3 stars 4 stars 5 stars
comments

Beach Side Bass Tab

   
-----------------------------------------------------------------------------
			  Beach Side - Kings of Leon
-----------------------------------------------------------------------------

Tabbed By : Callum Urquhart

Tuning: Standard

Intro

G|-----------------------------------------------------------------|
D|-4-4-4-4-4-4-4-4-4-4-4-4-4-4-4-4---------------------------------|
A|---------------------------------2-2-2-2-2-2-2-2-2-2-2-2-2-2-2-2-|
E|-----------------------------------------------------------------|

Verse Part 1

G|-----------------------------------------------------------------|
D|-4----4--4----4----4----4--4-------------------------------------|
A|---------------------------------2----2--2----2----2----2--2-----|
E|-----------------------------------------------------------------|

Verse Part 2
[ Tab from: http://www.guitartabs.cc/tabs/k/kings_of_leon/beach_side_btab.html ]
G|-----------------------------------------------------------------|
D|-7-7-7-7-7-7-7-7-6---4---2---4-----------------------------------|
A|---------------------------------0-2-2-2-2-2-2-2-2-2-2-2-2-2-2-2-|
E|-----------------------------------------------------------------|

Verse Part 2 Alt

G|-----------------------------------------------------------------|
D|-7-7-7-7-7-7-7-7-6---4---2---4---4---2---------------------------|
A|---------------------------------------2-2-2-2-2-2-2-2-2-2-2-2-2-|
E|-----------------------------------------------------------------|

Its just that I think.
Pretty easy to hear which verse to use where.
He messes about with it a bit more towards the end of the song,
but just playing this sounds right as far as i can tell. :)

| /  slide up
| \  slide down
| h  hammer-on
| p  pull-off
| ~  vibrato
| +  harmonic
| x  Mute note
=============================================================================
Comments