Kings Of Leon - Be Somebody Chords & Tabs

 

Be Somebody Chords & Tabs

Kings Of Leon Chords & Tabs

Version: 4 Type: Tab 0 ratings
1 star 2 stars 3 stars 4 stars 5 stars
comments

Be Somebody Tab

Tabbed by: imperialmerv
Email: imperialmerv@hotmail.com.au

Tuning: Drop D

Intro:
e-----------------------------------------------------------------|
B-----------------------------------------------------------------|
G-----------------------------------------------------------------|
D-----------------------------------------------------------------|  x3
A---3---3---3---3---3---3---3---3---3---3---3---3---3---3---3---3-|
D-0-----------0-------0-------0---3-----------3---2-----------2---|

Verse 1:
e-----------------------------------------------------------------|
B-----------------------------------------------------------------|
G-----------------------------------------------------------------|
D-----------------------------------------------------------------|
A---------------------------3---3---------------3---3-----------3-|
D-0---------------0-----------0---3-----------3---2-----------2---|

e-----------------------------------------------------------------|
B-----------------------------------------------------------------|
G-----------------------------------------------------------------|
D-----------------------------------------------------------------|
A-----------------------------------------------3---------------3-|
D-0-------------------------------3-----------3---2-----------2---|

Intro x1

Verse 2:
e-----------------------------------------------------------------|
B-----------------------------------------------------------------|
G-----------------------------------------------------------------|
D-----------------------------------------------------------------|
A---------------------------3---3---3-------3---3-----------3---3-|
D-0---------------------------0---3-----------3---2-----------2---|

e-----------------------------------------------------------------|
B-----------------------------------------------------------------|
G-----------------------------------------------------------------|
D-----------------------------------------------------------------|
A---------------------------3---3-----------3---3---3---3---3---3-|
D-0---------------------------0---3-----------3---2-----------2---|

Intro x2

Chorus:
e-----------------|
B-----------------|
G-----------------|
D-------4-5-7-5-4-|  x16
A-5-4-5-----------|
D-----------------|
[ Tab from: http://www.guitartabs.cc/tabs/k/kings_of_leon/be_somebody_tab_ver_4.html ]
Bridge:
e-----------------------------------------------------------------|
B-----------------------------------------------------------------|
G-----------------------------------------------------------------|
D-----------------------------------------------------------------|
A---3---3---3---3---3---3---3---3---3---3---3---3---3---3---3---3-|
D-0-----------0-------0-------0---3-----------3---2-----------2---|

e-----------------------------------------------------------------|
B-----------------------------------------------------------------|
G-----------------------------------------------------------------|
D-----------------------------------------------------------------|
A---3---3---3---3---3---3---3-------3---3---3-------3---3---3---3-|
D-0-----------0-------0-------0---3-----------3---2-----------2---|

Verse 3:
e-----------------------------------------------------------------|
B-----------------------------------------------------------------|
G-----------------------------------------------------------------|
D-----------------------------------------------------------------|
A---------------------------3---------------3---3-----------3---3-|
D-0---------------------------0---3-----------3---2-----------2---|

e-----------------------------------------------------------------|
B-----------------------------------------------------------------|
G-----------------------------------------------------------------|
D-----------------------------------------------------------------|
A---------------------------3-------------------3-----------3---3-|
D-0---------------------------0---3---3---3---3---2---2---2---2---|

Intro x2

Chorus x16

Solo:
e---------------------------------|
B---------------------------------|
G-------6-----4---7-----6---------|
D-7-------------------------------|  x4
A---------------------------------|
D---------------------------------|
- Rhythm is the same as the chorus.

Outro:
e----------------------------|
B----------------------------|
G----------------------------|
D----------------------------|  x16
A----------------------------|
D-0--0-0-3--0-0--0-0--3--0-0-|

e-----------------|
B-----------------|
G-----------------|
D-5---------------|
A-3---------------|
D-3---------------|
  ^let ring

Thanks goes to Kawasaki377, without whom I wouldn't have the basis for this tab, and 
would have had to spend a lot longer on.
Comments