Kings Of Leon - Be Somebody Chords & Tabs

 

Be Somebody Chords & Tabs

Kings Of Leon Chords & Tabs

Version: 3 Type: Tab 0 ratings
1 star 2 stars 3 stars 4 stars 5 stars
comments

Be Somebody Tab

-------------------------------------------------------------------------------
			     Be Somebody - Kings of Leon
-------------------------------------------------------------------------------
Tabbed by: Kawasaki377
Email: fender377@gmail.com

Tuning: Drop D

Main Riff
e---------------------------------------------------------------------|
B---------------------------------------------------------------------|
G---------------------------------------------------------------------|
D---------------------------------------------------------------------|
A---3---3---3---3---3---3---3---3---3---3---3---3---3---3---3---3-----|
D-0---0---0---0---0---0---0---0---3---3---3---3---2---2---2---2-------|

Chorus
Guitar 1
e-----------------------|     
B-----------------------|
G-----------------------|
D-------4-5-7-5-4-------|
A-5-4-5-----------------|
D-----------------------|

Guitar 2
e-----------------------|
B----7---10\7~----------|
G-7~---7----------------|
D-----------------------|
A-----------------------|
D-----------------------|
[ Tab from: http://www.guitartabs.cc/tabs/k/kings_of_leon/be_somebody_tab_ver_3.html ]
Outro (Listen to the song to figure out the rhythm, it's pretty easy)
e-----------------------|
B-----------------------|
G-----------------------|
D-----------------------|
A-----------------------|
D-0-0-3-0-0-0-0-3-------|

Check out my other tabs and please rate :D

Lyrics:
Taken to the floor with the reach to the sky
I loosen my tie, I loosen my tie

Locking down the door with the rhythm and rhyme
I loosen my tie, I loosen my tie

Trying to recall what you want me to say
I shake it your way, I shake it your way

Counting on the night for a beautiful day
I shake it your way, I shake it your way

and i say, you can't get enough
Now you can't get enough

Given a chance
I'm gonna be somebody
If for one dance
I'm gonna be somebody
Open the door
It's gonna make you love me
Facing the floor
I'm gonna be somebody

Now it's your time and you know where you stand
With a gun in your hand, With a gun in your handw

Now i'm no longer an ordinary man
Was this your big plan, your gun in your hand?

and i say, you can't get enough
Now you can't get enough

Given a chance
I'm gonna be somebody
If for one dance
I'm gonna be somebody
Open the door
It's gonna make you love me
Facing the floor
I'm gonna be somebody

Be somebody
Be somebody
Comments