Kings Of Leon - Arizona Chords & Tabs

 

Arizona Chords & Tabs

Kings Of Leon Chords & Tabs

Version: 5 Type: Bass Tab 0 ratings
1 star 2 stars 3 stars 4 stars 5 stars
comments

Arizona Bass Tab

absolutely beautiful song from Because of the times, my first tab and i think its right. 
starts in after second measure

main riff:
G|------------------------------------|
D|-14-13-11-9/7-7/6-6-----------------|
A|------------------------------------|
E|0--0--0--0--------------------------|

variations:
G|------------------------------------|
D|-14-13-11-9/18181818----------------| (18's not 1 8)
A|------------------------------------|
E|0--0--0--0--------------------------|

solo:
G|------------------------|
D|------------11/9/11-----|
A|------11----------------|
E|12--9----9--------------|

ending riff:
G|--------13--14h16p14--13------------|
D|-14-16------------------------------|
A|------------------------------------|
E|0--0--0-----------------------------| x 2

G|--------13--------------------------|
D|-14-16------------------------------|
A|-----------14--14--14---------------|
E|0--0--0-----------------------------| x 2

the followig riffs aren't played on the album version but they are played in almost all 
Kings of Leons live performances

G|--------13--14h16p14--13------------|
D|-14-16------------------------------|
A|------------------------------------|
E|0--0--0-----------------------------|
[ Tab from: http://www.guitartabs.cc/tabs/k/kings_of_leon/arizona_btab_ver_5.html ]
G|--------13-14/18-16-14--------------|
D|-14-16------------------------------|
A|------------------------------------|
E|0--0--0-----------------------------|


G|--------13--------------------------|
D|-14-16------------------------------|
A|-----------14--14--14---------------|
E|0--0--0-----------------------------| x 2

ending solo:

G|---------13---------|
D|--141314---141314---| (13's and 14's)
A|--------------------|
E|0-------------------|

then again the album version differs to live, normally you play ending solo until fade 
but live jared plays

G|---------13-------13-14----------|
D|--141314---141314------14/2------| (13's and 14's)
A|---------------------------------|
E|0----------------------------0/12|

ordering, album :
Main riff x 8
break
main riff x 8
breal
main riff x 12
solo x 4
main riff x 16
ending riff x 2
main riff x 6
ending solo x 4
main riff x 4
ending solo until fade out

ordering live:
Main riff x 8
break
main riff x 8
breal
main riff x 12
solo x 4
main riff x 16
ending riff x 1
ending riff variation x 1
main riff x 4
ending solo x 4
ending riff x 1
ending riff variation x 1
ending solo x 3
ending solo variation x1

and that should be it, jared often throws a main riff variation towards the end of the 
verse
enjoy!
Comments