Kings Of Leon - Arizona Chords & Tabs

 

Arizona Chords & Tabs

Kings Of Leon Chords & Tabs

Version: 3 Type: Bass Tab 0 ratings
1 star 2 stars 3 stars 4 stars 5 stars
comments

Arizona Bass Tab

   
Arizona - Kings of Leon

This is just what ive seen him play live in a video


Intro
G|---------------------------|
D|---------------------------|
A|---------------------------|
E|-12-12-12-12-12-12-12-12-12|

Starts at 0:26            x8 
G|-----------------------|
D|---14--13--11--9--7--6-|
A|-----------------------|
E|-12--12--12------------|

"She Shakes.."
                          x8
G|------------------------------------------|
D|---14--13--11--9--7--6--------------------|
A|-------------------(on eighth end on)-----|
E|-12--12--12--------------12---------------|


"And I Go.."
                          x12
G|-----------------------|
D|---14--13--11--9--7--6-|
A|-----------------------|
E|-12--12--12------------|

"Shake Hands"
                     x4
G|------------------|
D|------6----11-9-11|
A|--7---------------|
E|----9---9---------|
[ Tab from: http://www.guitartabs.cc/tabs/k/kings_of_leon/arizona_btab_ver_3.html ]
"My Face.."
                          x15
G|-----------------------|
D|---14--13--11--9--7--6-|
A|-----------------------|
E|-12--12--12------------|

                                                     x2
G|-------------14-13----|---------------14-----------|
D|-----14--16--------16-|-------14--16---------------|
A|----------------------|-------------------14-14-14-|
E|--12------------------|----12----------------------|

                         x6 
G|-----------------------|
D|---14--13--11--9--7--6-|
A|-----------------------|
E|-12--12--12------------|

                            x4  
G|--------------13----------|
D|-----14-13-14----14-13-14-|
A|--------------------------|
E|--12----------------------|


                         x6 
G|-----------------------|
D|---14--13--11--9--7--6-|
A|-----------------------|
E|-12--12--12------------|


                            x9 Slowly Fade Out  
G|--------------13----------|
D|-----14-13-14----14-13-14-|
A|--------------------------|
E|--12----------------------|


Comments