Kings Of Leon - 17 Chords & Tabs

 

17 Chords & Tabs

Kings Of Leon Chords & Tabs

Version: 2 Type: Bass Tab 0 ratings
1 star 2 stars 3 stars 4 stars 5 stars
comments

17 Bass Tab

   
Kings of Leon - 17
Album: Only By The Night
Instrument: Bass
Tuning: GDAE


Intro:
G|----------------|
D|----------------|
A|3333333333333333|
E|----------------|

G|--------------------------------|--------------------------------|
D|--------------------------------|--------------------------------|
A|7777555533332222----222233333333|7777555533332222----22222-------|
E|----------------3333------------|----------------3333------------|

Verse:
G|----------16--14--------------------|----------------|
D|---14-16-------------14-16--14------|----------------|
A|16----------------16------------16--|7777555533332222|
E|------------------------------------|----------------| x4

Chorus:
G|--------------------------------|    |--------------------------------|
D|--------------------------------|    |--------------------------------|
A|7777555533332222----222233333333|    |7777555533332222----22222-------|
E|----------------3333------------| x3 |----------------3333------------|
[ Tab from: http://www.guitartabs.cc/tabs/k/kings_of_leon/17_btab_ver_2.html ]
Verse:
G|----------16--14--------------------|----------------|
D|---14-16-------------14-16--14------|----------------|
A|16----------------16------------16--|7777555533332222|
E|------------------------------------|----------------| x3

G|------------------------------------|----------------|
D|---14-16\-----------14--1414-16-14--|----------------|
A|16----------------------------------|7777555533332222|
E|------------------------------------|----------------|

Chorus:
G|--------------------------------|    |--------------------------------|
D|--------------------------------|    |--------------------------------|
A|7777555533332222----222233333333|    |7777555533332222----22222-------|
E|----------------3333------------| x3 |----------------3333------------|

Outro:
G|--------------------------------|    |--------------------------------|
D|--------------------------------|    |--------------------------------|
A|7777555533332222----222233333333|    |7777555533332222----22222-------|
E|----------------3333------------| x3 |----------------3333------------|
Comments