Kings Of Leon - 17 Chords & Tabs

 

17 Chords & Tabs

Kings Of Leon Chords & Tabs

Version: 1 Type: Bass Tab 0 ratings
1 star 2 stars 3 stars 4 stars 5 stars
comments

17 Bass Tab

On the oh shes only 17 bit (chorus?)
[ Tab from: http://www.guitartabs.cc/tabs/k/kings_of_leon/17_btab.html ]
G|-----14--14h16--14--|--------------------|
D|--14----------------|-----12-------------|
A|--------------------|-12-----14----12----|
E|--------------------|--------------------|

then the quick little bit later on

G|------------16--------|
D|--14-14--14-----14----|
A|----------------------|
E|----------------------|
Comments