Kings Of Convenience - Little Kids Chords & Tabs

 

Little Kids Chords & Tabs

Kings Of Convenience Chords & Tabs

Version: 2 Type: Tab 0 ratings
1 star 2 stars 3 stars 4 stars 5 stars
comments

Little Kids Tab

##################################################################################
# This file is the author's own work and represents their interpretation of the  #
# song. You may only use this file for private study, scholarship, or research.  #
##################################################################################

Artist            : Kings of Convenience
Album             : Quiet Is The New Loud
Song              : Little Kids

Transcribed by    : Orson Michael Rosas
Date              : 11-27-2002
E-mail            : omrosas@earthlink.net
URL               : 

Note              : I realise that there are already tablatures for this song, 
    but I'm adding this one because it's a convenient way to play the 
    song without a capo and in standard tuning. It takes a little 
    work, but it's not that difficult. Enjoy!

Tuning            : Standard


 (1.a) Verse                     Repeat          (1.b) **Only at end of BVB**
e|--------------------0---0---0-------||----------------------------------|
B|----0---0---0---0---0---0---0---0---||----0---0---0---0-----------------|
G|----8---8---8---6---------------6--*||----8---8---8---8-----------------|
D|--6---6----------------------------*||--6---6---6---6---6---6---6---6---|
A|--------------7---4---4---0---0-----||----------------------------------|
E|----------7-------------------------||----------------------------------|

[ Tab from: http://www.guitartabs.cc/tabs/k/kings_of_convenience/little_kids_tab_ver_2.html ]
 (2.a) **Between verse break (BVB); second guitar.     (2.b) Ending to BVB    
  First guitar continues verse. This is also played 
  during the third verse: "(and rises over...) 
  Brooklyn Bridge, tomorrow...", as well as the outro

e|------------------------------------|       e|-------------------------------------|
B|------------------------------------|        B|-------------------------------------|
G|------1---------------------1-------| A|----------------2-3-4-----4---4------|
E|2-3-4-------------------------------|       E|2-3-4---------------------------2-3-4|


 (3) After second BVB. "little kids playing... soon they'll be all gone..."
e|--------------------0---0---0---0---|
B|----0---0---0---0---0---0---0---0---|
G|----8---8---8---8-------------------|
D|------------------------------------|
A|------------------------------------|
E|------------------------------------| Second guitar plays...


 (4) Second guitar (after second BVB). comes in at 
     second round of "little kids... soon they'll..."
e|----6---6---6---6---4---4---4---4---|
B|----7---7---7---7---5---5---5---5---|
G|------------------------------------|
D|------------------------------------|
A|------------------------------------|
E|------------------------------------|


Thanks for checking the tab out. E-mail me with any questions/concerns/suggestions/changes.


==========================================================================
 Tab created with Kastor's Guitar Tabulature Manager 3.0 (TabIt Quick 1.0)
          You can get it for FREE from >>www.inet.hr/~kpetak
Comments