Kings Of Convenience - Homesick Chords & Tabs

 

Homesick Chords & Tabs

Kings Of Convenience Chords & Tabs

Version: 1 Type: Tab 0 ratings
1 star 2 stars 3 stars 4 stars 5 stars
comments

Homesick Tab

This is a really great song. They don't really strum these chords they more like pick
them out and stuff. So these may not be the acual way they play the chords, but for the
lazy person who prefers to strum, these work.

Standard with a CAPO on the 1st.
PART 1
|--0--0--0--3--1--3--0--|
|--1--1--1--3--1--3--1--|
|--0--0--2--0--2--0--0--|
|--2--0--2--0--3--0--2--|
|--3--2--0--2--3--2--3--|
|-----------3--1--3-----|
[ Tab from: http://www.guitartabs.cc/tabs/k/kings_of_convenience/homesick_tab.html ]
PART 2
|--0--0--1--0--3--1--3--|
|--1--1--3--1--3--1--3--|
|--2--0--2--2--0--2--0--|
|--3--2--0--2--0--3--0--|
|-----------0--2--3--2--|
|--------------3--1--3--|

PART 3
|--0--0--0--0--|
|--1--1--3--1--|
|--2--2--0--2--|
|--0--2--0--3--|
|-----0--2--3--|
|--------3--1--|

PART 5
|--0--0--0--0--|
|--1--1--3--1--|
|--2--0--0--2--|
|--3--2--0--3--|
|--3--3--2--3--|
|--1-----3--1--|

SONG ORDER

PART 1 x3
PART 2
PART 1
PART 2
PART 1 x3
PART 2
PART 1
PART 2
PART 3
PART 1 x2
PART 5
PART 1
Comments