King Tom - River Of Hope Chords & Tabs

 

River Of Hope Chords & Tabs

King Tom Chords & Tabs

Version: 1 Type: Tab 0 ratings
1 star 2 stars 3 stars 4 stars 5 stars
comments

River Of Hope Tab

Title: River of Hope
Artist: Tom King
I own f**king rights to this song


River of Hope



----12--12--11--11--10--10/--14--14--13--13--12--12/--14--13--12--11/
----12--12--11--11--10--10/--14--14--13--13--12--12/--14--13--12--11/
----12--12--11--11--10--10/--14--14--13--13--12--12/--14--13--12--11/
---------------------------------------------------------------------
---------------------------------------------------------------------

[ Tab from: http://www.guitartabs.cc/tabs/k/king_tom/river_of_hope_tab.html ]
----------------------------------------------------------------------
----------------------------------------------------------------------
-------7h9p7h---------------------------------------------------------
--7--9---------9--7---------------------------------------------------
9---------------------------------------------------------------------
---------------------9--7---------------------------------------------             
  Repeat:

If you know a good continuation to this song, mail me at
Hendrix_Morrison@guitar.com 
If I like it, your name will be on my next c-d     
Comments