King Missile - Detachable Penis Chords & Tabs

 

Detachable Penis Chords & Tabs

King Missile Chords & Tabs

Version: 2 Type: Tab

Detachable Penis Tab

Detachable Penis
King Missile

Use distortion... use all u want... it especially helps if you've got a very
loud/powerful amp... don't worry bout the neighbors waking up @ 2 AM because
you're jamming... and don't forget to make sure they can hear u sing it!


Intro/Verse (until "detachable penis")
|---------------------------------|
|---------------------------------|
|6-6-6-6-6-6----------------------|
|6-6-6-6-6-6----5-5-5-5--7-7-7-7--|
|4-4-4-4-4-4----3-3-3-3--7-7-7-7--|
|---------------3-3-3-3--5-5-5-5--|
[ Tab from: http://www.guitartabs.cc/tabs/k/king_missile/detachable_penis_tab_ver_2.html ]
Then there's a crazy lil background solo... my guess is once you figure out the key
to it, you can just make it up... sorry for not having it... as a subsitute, however,
u can just play that lil riff over and over again... it alternates over the entire
song... eventually, however, it goes to this:

|---------------------------|
|---------------------------|
|6-6-6-6--------------------|
|4-4-4-4--5-5-5-5--7-7-7-7--|
|4-4-4-4--5-5-5-5--7-7-7-7--|
|---------3-3-3-3--5-5-5-5--|

and at the very end, the distortion's all the way up, and then the 1st riff is just
played without the pauses between power chords...

If you thought this was cool or just plain sucked, my e-mail's RCT2head@hotmail.com