King Harvest - Dancing In The Moonlight Chords & Tabs

 

Dancing In The Moonlight Chords & Tabs

King Harvest Chords & Tabs

Version: 1 Type: Tab 0 ratings
1 star 2 stars 3 stars 4 stars 5 stars
comments

Dancing In The Moonlight Tab

   
----------------------------------PLEASE NOTE---------------------------------#
#This file is the author's own work and represents their interpretation of the #
#song. You may only use this file for private study, scholarship, or research. #
#------------------------------------------------------------------------------#
#

Date: Thu, 14 Nov 1996 15:28:19 -0500
From: Andrew Rogers 
Subject: ./k/king_harvest/dancing_in_the_moonlight.crd

                       "Dancing In The Moonlight"
                            (Sherman Kelly)

Intro:

(Wurlitzer electric piano arr. for guitar; actually played one
 octave higher):

Cm7                       Fm7
 v     v     v     v       v     v     v     v  
----------3--------------|-------------------------
-------------4-----------|----4--------4-----4-----
-------3--------3-----3--|----1--------1-----1--2--
----5--------------5-----|-3--------3--------------
-3-----------------------|-------------------------
-------------------------|-------------------------
[ Tab from: http://www.guitartabs.cc/tabs/k/king_harvest/dancing_in_the_moonlight_tab.html ]
Bb                    Eb             Bb/D
 v     v     v     v       v     v     v     v  
----------------------3--|----------3--1--------1--
-1-h3--1-h3-----1--------|-------4-----------3-----
-3-----------------3-----|----3-----------3--------
-------------------------|-------------0--------0--
----------------------6--|----------6--------------
-------------------------|-------------------------

Cm7                       Fm7 (bass enters)
 v     v     v     v       v     v     v     v
----------3--------------|-------------------------
-4-----------4-----------|----4--------4-----4-----
-------3--------3-----3--|----1--------1-----1--2--
----5--------------5-----|-3--------3--------------
-3-----------------------|-------------------------
-------------------------|-------------------------

Bb                   Gm/D              Gm            Cm [N.C.]
 v     v     v     v       v     v     v     v       v
----------------------3--|----3--------3-----3-----|---
-1-h3--1-h3-----------3--|----3--------3-----3-----|-3-
-3--------3-----------3--|-------------3-----3-----|-5-
-------------------------|-------------5-----------|-5-
----------------------5--|----5--------------5-----|-3-
-------------------------|-------------------------|---


Guitar solo 1:

Fm       Bb       Eb Bb/D  Cm [N.C.]
/ / / /  / / / /  / / / /  /

Guitar solo 2:

Fm       Bb       Eb Bb/D  Cm
/ / / /  / / / /  / / / /  / / / /
Fm       Bb       Eb Bb/D  Cm [N.C.]

/ / / /  / / / /  / / / /  /
---------------------------------------------
-- another ace 70's tab from Andrew Rogers --
---------------------------------------------
Comments