King Freddie - You Mean Mean Woman Chords & Tabs

 

You Mean Mean Woman Chords & Tabs

King Freddie Chords & Tabs

Version: 1 Type: Bass Tab 0 ratings
1 star 2 stars 3 stars 4 stars 5 stars
comments

You Mean Mean Woman Bass Tab

You Mean, Mean Woman (How Can Your Love Be True) - Freddie King

12 bar blues

  intro
G|------------------5-5---5-53-32-21-10--1-0--|
D|------5-5--23-37-7---753--------------------|
A|3-37-7---35---------------------------3-----|
E|--------------------------------------------|
[ Tab from: http://www.guitartabs.cc/tabs/k/king_freddie/you_mean_mean_woman_btab.html ]
  first verse
G|----------------------5-5---------------------------------5-575-------5-5----------
D|575-------5-5--23-37-7---753------5-575-------5-575-3-37-7-----73-37-7---753------5
A|----3-37-7---35-------------3-37-7-----73-37-7-----7------------------------3-37-7-
E|---0-------------------------------------------------------------------------------

-------------------------------------------------------1-10--|
575-------5-5723---7-75-23523-31-1---------2-23-35-5---------|
---73-37-7------5-5---------------5-54-43-3---------3-3------|
-------------------------------------------------------------|

tabbed by Achilles (blue_sincere@hotmail.com)

Comments