King Crimson - One Time Chords & Tabs

 

One Time Chords & Tabs

King Crimson Chords & Tabs

Version: 1 Type: Bass Tab 0 ratings
1 star 2 stars 3 stars 4 stars 5 stars
comments

One Time Bass Tab

                                    One Time
                                  King Crimson
                                                      Transcribed by Justin Benz


    0:00                                                                        
G---||------------------------------|---------------------------||--------------
D---||*-----------------------5--5--|--------------------5--5--*||--------------
A---||*--3-----3--------3-----------|--3-----3--------3--------*||--3-----3-----
E---||------------------------------|---------------------------||--------------
                                                                                

                                                                                
G---------------------|--------------------------|------------------------------
D---------------5--5--|--------------------5--5--|-----------------------6------
A---------3-----------|--3-----3--------3--------|--3-----3--------3------------
E---------------------|--------------------------|------------------------------
                                                                                

                                                                                
G------|--------------------------||------------------------------|-------------
D---6--|--------------------3--3--||*-----------------------5--5--|-------------
A------|--3-----3--------3--------||*--3-----3--------3-----------|--3-----3----
E------|--------------------------||------------------------------|-------------
                                                                                

                        0:29                                                    
G-------------------||-----------------------------|----------------------------
D------------5--5--*||-----------------------5--5--|--------------------5--5----
A---------3--------*||--3-----3--------3-----------|--3-----3--------3----------
E-------------------||-----------------------------|----------------------------
                                                                                

                                                                                
G---|-----------------------------|-----------------------------|---------------
D---|-----------------------5--5--|-----------------------5--5--|--6-----6------
A---|--3-----3--------3-----------|--3-----3--------3--3--------|---------------
E---|-----------------------------|-----------------------------|---------------
                                                                                

                                                                                
G------------------|--------------------------||--------------------------------
D---------6-----6--|--5-----5--------5-----5--||*-----------------------5--5----
A------------------|--------------------------||*--3-----3--------3-------------
E------------------|--------------------------||--------------------------------
                                                                                

                                                                                
G---|---------------------------||-----------------------------|----------------
D---|--------------------5--5--*||-----------------------5--5--|----------------
A---|--3-----3--------3--------*||--3-----3--------3-----------|--3-----3-------
E---|---------------------------||-----------------------------|----------------
                                                                                

                                                                                
G------------------|--------------------------|--------------------------|------
D------------5--5--|--6-----6--------6-----6--|--5-----5--------5-----5--|------
A------3--3--------|--------------------------|--------------------------|------
E------------------|--------------------------|--------------------------|------
                                                                                

                                             1:08                               
G---------------------|----------------------|----------------------|-----------
D---3--------3-----3--|--5-------------------|----------------------|-----------
A---------------------|----------------------|--------5-----6-------|-----------
E---------------------|-----------3--------3/|--8-----------------8\|--3--------
                                                                                

                                                                                
G---------------|--------------------------|--------------------|---------------
D---------------|-----------6--5-----3-----|--5-----------------|---------------
A---------------|-----------------------6--|--------------------|---------------
E------3-----3--|--4-----------------------|-----------3--------|--1------------
                                                                                

                                                                                
G------------|--------------------|-----------------------------|---------------
D------------|--------------------|-----------------------5--5--|---------------
A------------|--------3/10--------|--3-----3--------3-----------|--3-----3------
E---1--------|--3-----------------|-----------------------------|---------------
                                                                                

                                                                                
G------------------|----------------------|--------------------|----------------
D------------5-----|----------------------|--------------------|-----------6----
A---------3--------|--3-----5-----6-------|--------------------|----------------
E------------------|--------------------8\|--3--------3-----3--|--4-------------
                                                                                

                                                                                
G---------------|--------------------|-----------------|------------------------
D---5-----3-----|--5-----------------|-----------------|------------------------
A------------6--|--------------------|-----------------|--------3/10-----10-----
E---------------|-----------3--------|--1-----------1--|--3---------------------
                                                                                

    1:43                                                                        
G---||------------------------------|---------------------------||--||----------
D---||*-----------------------5--5--|--------------------5--5--*||--||*---------
A---||*--3-----3--------3-----------|--3-----3--------3--------*||--||*--3------
E---||------------------------------|---------------------------||--||----------
                                                                                

                                                                                
G---------------------------|--------------------------|------------------------
D---------------------5--5--|--------------------5--5--|------------------------
A------3--------3-----------|--3-----3--------3--------|--3-----3--------3------
E---------------------------|--------------------------|------------------------
                                                                                
[ Tab from: http://www.guitartabs.cc/tabs/k/king_crimson/one_time_btab.html ]
                                                                                
G------------|---------------------------||--||---------------------------------
D------6--6--|--------------------3--3--*||--||*-----------------------5--5-----
A------------|--3-----3--------3--------*||--||*--3-----3--------3--------------
E------------|---------------------------||--||---------------------------------
                                                                                

                                    2:22                                        
G---|---------------------------||-----------------------------|----------------
D---|--------------------5--5--*||-----------------------5--5--|----------------
A---|--3-----3--------3--------*||--3-----3--------3-----------|--3-----3-------
E---|---------------------------||-----------------------------|----------------
                                                                                

                                                                                
G---------------|-----------------------------|---------------------------------
D---------5--5--|-----------------------5--5--|-----------------------5--5------
A------3--------|--3-----3--------3-----------|--3-----3--------3--3------------
E---------------|-----------------------------|---------------------------------
                                                                                

                                                                                
G---|--------------------------|--------------------------||--------------------
D---|--6-----6--------6-----6--|--5-----5--------5-----5--||*-------------------
A---|--------------------------|--------------------------||*--3-----3----------
E---|--------------------------|--------------------------||--------------------
                                                                                

                                                                                
G---------------|---------------------------||-----------------------------|----
D---------5--5--|--------------------5--5--*||-----------------------5--5--|----
A---3-----------|--3-----3--------3--------*||--3-----3--------3-----------|----
E---------------|---------------------------||-----------------------------|----
                                                                                

                                                                                
G------------------------------|--------------------------|---------------------
D------------------------5--5--|--6-----6--------6-----6--|--5-----5------------
A---3-----3--------3--3--------|--------------------------|---------------------
E------------------------------|--------------------------|---------------------
                                                                                

                                                         3:02                   
G------------|--------------------|----------------------|----------------------
D---5-----5--|--3--------3-----3--|--5-------------------|----------------------
A------------|--------------------|----------------------|--------5-----6-------
E------------|--------------------|-----------3--------3/|--8-------------------
                                                                                

                                                                                
G-----|--------------------|--------------------------|--------------------|----
D-----|--------------------|-----------6--5-----3-----|--5-----------------|----
A-----|--------------------|-----------------------6--|--------------------|----
E---8\|--3--------3-----3--|--4-----------------------|-----------3--------|----
                                                                                

                                                                                
G---------------------|--------------------------|------------------------------
D---------------------|--------------------------|-----------------------5------
A---------------------|--------3/10--10--10--10--|--3-----3--------3------------
E---1--------1-----1--|--3-----------------------|------------------------------
                                                                                

                                                                                
G------|-----------------------------|----------------------|-------------------
D---5--|-----------------------5-----|----------------------|-------------------
A------|--3-----3--------3--3--------|--3-----5-----6-------|-------------------
E------|-----------------------------|--------------------8\|--3--------3-------
                                                                                

                                                                                
G------|--------------------------|--------------------|------------------------
D------|-----------6--5-----3-----|--5-----------------|------------------------
A------|-----------------------6--|--------------------|------------------------
E---3--|--4-----------------------|-----------3--------|--1--------1-----1------
                                                                                

                                                                                
G---|---------------------|-----------------------------|-----------------------
D---|---------------------|-----------------------5--5--|-----------------------
A---|--------3/10-----10--|--3-----3--------3-----------|--3-----3--------3-----
E---|--3------------------|-----------------------------|-----------------------
                                                                                

                                                                      3:46      
G---------|-----------------------------|-----------------------------||--------
D---5--5--|-----------------------5--5--|-----------------------5--5--||*-------
A---------|--3-----3--------3-----------|--3-----3--------3--3--------||*--3----
E---------|-----------------------------|-----------------------------||--------
                                                                                

                                                                                
G---------------------------|--------------------------|------------------------
D---------------------5--5--|--------------------5--5--|------------------------
A------3--------3-----------|--3-----3--------3--------|--3-----3--------3------
E---------------------------|--------------------------|------------------------
                                                                                

                                         2x                                     
G------------|---------------------------||-----------------||------------------
D------6--6--|--------------------3-----*||-----------------||------------------
A------------|--3-----3--------3--------*||--3--------------||------------------
E------------|---------------------------||-----------------||------------------
                                                                                



================================================================================
==                Created with a demo version of BUCKET O' TAB                ==
==                  tablature creation software for Windows                   ==
==                       http://www.his.com/~gse/bucket                       ==
================================================================================




Comments