King Crimson - Formentera Lady Chords & Tabs

 

Formentera Lady Chords & Tabs

King Crimson Chords & Tabs

Version: 1 Type: Tab 0 ratings
1 star 2 stars 3 stars 4 stars 5 stars
comments

Formentera Lady Tab

#----------------------------------PLEASE NOTE---------------------------------#
#This file is the author's own work and represents their interpretation of the #
#song. You may only use this file for private study, scholarship, or research. #
#------------------------------------------------------------------------------##
From: ppalmer@ironwood.cray.com (Pete Palmer)

Formentera Lady
King Crimson
Album: Islands

This one has a bunch of different instruments, but this is my
play-along version.

Intro is done on cello, I believe.  Here are the notes
on guitar an octave higher.  These are also the notes
for the vocal line of the verses.

-------------------------------------------------------
-------------------------------------------------------
4--2--0-----2--0-----------0---------------------------
---------4--------4--0--2-----2------------------------
-------------------------------------------------------
-------------------------------------------------------
Houses iced ..

-------------------------------------------------------
-------------------------------------------------------
4--2--0-----2--0---------------------------------------
---------4--------4--0--2------------------------------
-------------------------------------------------------
-------------------------------------------------------
Cornered by the ...

[ Tab from: http://www.guitartabs.cc/tabs/k/king_crimson/formentera_lady_tab.html ]
0------------------------------------------------------
---3--1-----3--1-----------1---------------------------
---------4--------4--0--2-----2------------------------
-------------------------------------------------------
-------------------------------------------------------
-------------------------------------------------------
Here I wander...


0------------------------------------------------------
---3--1-----3--1---------------------------------------
---------4--------4--0--2------------------------------
-------------------------------------------------------
-------------------------------------------------------
-------------------------------------------------------
Down a sunbaked .... road

(Second verse sounds the same)


Then the bass comes in pulsing endless low A notes 5-x-x-x-x-x.


Chorus (sing along an octave lower):

------5-----7--9-----7-5-7-5--------
5--7-----7-------------------7--5---
------------------------------------
------------------------------------
------------------------------------
------------------------------------
I'll unwind my old strings ...



------5-----7--9-----7-5-7-5--------
5--7-----7--------------------------
------------------------------------
------------------------------------
------------------------------------
------------------------------------


%%%%%%%%%%%%%%%%%%%%%%%%%%%%%
Pete Palmer 
ppalmer@cray.com
%%%%%%%%%%%%%%%%%%%%%%%%%%%%%

Go, little record go!  - Pixies


Won't climb any ...
Comments