King Ben E - Stand By Me Chords & Tabs

 

Stand By Me Chords & Tabs

King Ben E Chords & Tabs

Version: 3 Type: Bass Tab 0 ratings
1 star 2 stars 3 stars 4 stars 5 stars
comments

Stand By Me Bass Tab

A really simple version of a classic song!

E||----------------------|----------------------|----------------------|
B||----------------------|----------------------|----------------------|
G||----------------------|----------------------|----------------------|
D||----------------------|----------------------|----------------------|
A||--7------7---------6--|--7------7------7--7--|--4------4---------3--|
E||----------------7-----|----------------------|----------------4-----|

[ Tab from: http://www.guitartabs.cc/tabs/k/king_ben_e/stand_by_me_btab_ver_3.html ]
                                                                     
----------------------|----------------------|----------------------|
----------------------|----------------------|----------------------|
----------------------|----------------------|----------------------|
----------------------|----------------------|----------------------|
--4------4------4--4--|--0------0------0--0--|--2------2------2--2--|
----------------------|----------------------|----------------------|


                                             
----------------------|--------------------||
----------------------|--------------------||
----------------------|--------------------||
----------------------|--------------------||
--7------7---------6--|--7------7----------||
----------------7-----|--------------------||


Thats IT! There are some twidly bits in between but this is simple and sounds good.
Play on a bass or cleanly on a guitar.

Any comments send them to icklebreeze@hotmail.com thanks
Comments