King B B - The Thrill Is Gone Chords & Tabs

 

The Thrill Is Gone Chords & Tabs

King B B Chords & Tabs

Version: 1 Type: Bass Tab 0 ratings
1 star 2 stars 3 stars 4 stars 5 stars
comments

The Thrill Is Gone Bass Tab

The Thrill Is Gone - B.B. King

Studio Version
[ Tab from: http://www.guitartabs.cc/tabs/k/king_b_b/the_thrill_is_gone_btab.html ]
G|--------------------------------------------------------------------------------
D|-------------------------------------------------1-2-2-------1-2-2------0-------
A|2-2-------1-2-2-------1-2-2--------1-2-2-------2-------1-2-2-------1-2-2--4-2-2-
E|----1-2-2-------1-2-2-------1-2-2--------1-2-2----------------------------------


----------------------------------------------------------------------------|
----------------------------5-5---4-4---------------------------------------|
------1-2-2-------2-0-----5-----4-----4-----0-1-2-2-------1-2-2-----0-0-1-1-|
1-2-2-------1-2-2-----3-3---------------2-2---------1-2-2-------2-2---------|

Transcribed by Thomas Breuss 

Comments