King Adora - Smoulder Chords & Tabs

 

Smoulder Chords & Tabs

King Adora Chords & Tabs

Version: 1 Type: Tab 0 ratings
1 star 2 stars 3 stars 4 stars 5 stars
comments

Smoulder Tab

   
King Adora - Smoulder
 

Inro Riff

e-----------------------------------------------------------------
B-----------------------------------------------------------------
G-----------------------------------------------------------------
D--2-2-2-9-9-9-11-11-11-6-6-6-7-7-7-7-6-6-6-10-10-10-10-9-9-9-9--- x2 
A--2-2-2-9-9-9-11-11-11-6-6-6-7-7-7-7-6-6-6-10-10-10-10-9-9-9-9---
E--0-0-0-7-7-7--9--9--9-4-4-4-5-5-5-5-4-4-4-8--8--8--8--7-7-7-7---

Verse
[ Tab from: http://www.guitartabs.cc/tabs/k/king_adora/smoulder_tab.html ]
e------------------------------------------------------------------------
B------------------------------------------------------------------------
G------------------------------------------4-----------------------------
D--2--------------------------------------2------------------------------
A--2-------------------------------------3-------------------------------
E--0---------------------------------------------------------------------
     I got nothing to lose without you, I Vibrate you
(repeat on 2nd line)

Pre-chorus

   G5               B5             A5
   I Got Nothing to feel but empty love...
e------------------------------------]
B------------------------------------]
G-------------------4--------------7-]
D--5----------------4--------------5-]
A--5----------------2--------------5-]
E--3---------------------------------]


Chorus - same as intro riff (x2)
Repeat verse, chorus, then...

Solo - end 2nd chorus on A5, then...

e-------4------4-------------------------4------4----------------
B--55545--55545--555452--5554588775-55545--55545--55545--887bu---
G--------------------------------------------------------------2-   
D----------------------------------------------------------------
A----------------------------------------------------------------             
E----------------------------------------------------------------

repeat chorus, end on A5 

that's about it!
Comments