Kinetic Dissent - Reworked Chords & Tabs

 

Reworked Chords & Tabs

Kinetic Dissent Chords & Tabs

Version: 1 Type: Tab 0 ratings
1 star 2 stars 3 stars 4 stars 5 stars
comments

Reworked Tab

   
#----------------------------------PLEASE NOTE---------------------------------#
#This file is the author's own work and represents their interpretation of the #
#song. You may only use this file for private study, scholarship, or research. #
#------------------------------------------------------------------------------##
From: meloonb@picard.cs.wisc.edu (Brian Meloon)

		"Reworked"  by Kinetic Dissent
     from the CD _I Will Fight No More Forever_ (RoadRacer)

Transcribed by Brian Meloon (bmeloon@geom.umn.edu)

-------------------------------------------------------------------
NOTES:

Tuning: Standard 

Timing: Spacing of notes is somewhat indicative of relative lengths
	of the notes.  

Notation: When Two or more guitars are listed, play all simultaneously.

-------------------------------------------------------------------

...Fade in:

Section A:

Acoustic Guitar:

|-------------------------|------------------------|
|-------------------------|------------------------|
|-------------------------|------------------------|
|-4--4--4--5--5--5--5--7--|-7--7--8--8--8--8--8--8-|
|-5--5--5--5--5--5--5--5--|-5--5--5--5--5--5--5--5-|
|-------------------------|------------------------|

end Section A;

Enter drums and bass...

Play Section A eight times


Section B:
Electric 1:

|-------------------------|------------------------|
|-------------------------|------------------------|
|-------------------------|------------------------|
|-4--------5--------------|-7--------8-------------|
|-5--------5--------------|-5--------5-------------|
|-------------------------|------------------------|

Electric 2:

|-------------------------|------------------------|
|-------------------------|------------------------|
|-------7--------7-----7--|-------7--------7-----7-|
|----4--------5-----5-----|----7--------8-----8----|
|-5--------5--------------|-5--------5-------------|
|-------------------------|------------------------|

end Section B;

Play Section B four times

Repeat Section A eight times

Repeat Section B four times


Electric 1:
    		            ___________________________
			    |1., 3. 		       |
|--sl-----------------------|-sl-----------------------|
|--/8--8--8--8--8--8--8--8--|-/8--8--8--8--8--8--8--8--|
|*-/5--5--5--5--5--5--5--5--|-/5--5--5--5--5--5--5--5-*|
|*--------------------------|-------------------------*|
|---------------------------|--------------------------|
|---------------------------|--------------------------|

Electric 2:			   
			    ___________________________
			    |1., 3.	               |
|---------------------------|--------------------------|
|---------------------------|--------------------------|
|*--------------------------|-------------------------*|
|*--5--------5--------------|--2--------5-----------5-*|
|---3--------2--------------|--0--------2-----------2--|
|---------------------------|--------------------------|


Electric 1 ctd:
___________________________________ __________________________
|2.				   |4.			      |
|----------------------------------|--------------------------|
|---8------------------------------|--------------------------|
|---5-----------------------------*|--------------------------|
|---------------------------------*|--2-----------------------|
|----------------------------------|--0-----------------------|
|----------------------------------|--------------------------|

Electric 2 ctd:
___________________________________ __________________________
|2.                                |4.                        | 
|----------------------------------|--------------------------|
|----------------------------------|--------------------------|
|---------------------------------*|--------------------------|
|---2-----------------------------*|-----------2--3--5--3-----|
|---0------------------------------|--0--2--3--------------7--|
|----------------------------------|--------------------------|



Section C:
Electric 1:

|------------------------|------------------------|--------------------|
|------------------------|------------------------|--------------------|
|*-----------------------|------------------------|--------------------|
|*-5-------5--7---5------|-5---7---8--10---8---7--|-----5---8----------|
|------6--------------6--|------------------------|-5------------------|
|------------------------|------------------------|--------------------|

Electric 2:

|------------------------|------------------------|--------------------|
|------------------------|------------------------|--------------------|
|*-----------------------|------------------------|--------------------|
|*-5-------5--7---5------|-5-------5---7---5------|-----5---8----------|
|------6--------------6--|-----6---------------6--|-5------------------|
|------------------------|------------------------|--------------------|


Electrics ctd:
__________________________ _________________________
|1., 2.	 		  |3. 			    |
|-------------------------|-------------------------|
|-----------sl------------|-----------sl------------|
|---------3-/5-----3-----*|---------3-/5------sl----|
|-----5-----/7-----5-----*|-----5-----/7-----8-/10--|
|-5-----------------------|-5----------------6-/8---|
|-------------------------|-------------------------|

end Section C;



Section D:

Electrics:

|--------------|--------------|-----------------|------------------|
|--------------|--------------|-----------------|------------------|
|----------sl--|----------sl--|-----------------|------------sl----|
|-8-------8/10-|-8-------8/10-|-------7---------|-------7---8/10---|
|-6-------6/-8-|-6-------6/-8-|-5--8--5---8-5---|-5--8--5---6/-8---|
|--------------|--------------|-3--6------6-3---|-3--6-------------|

end Section D;

Play section D three more times


Section E:

Electrics:

|----------------|---------------|---------------|-----------------|
|----------------|---------------|---------------|-----------------|
|----------------|---------------|---------------|-----------------|
|-8---------8/10-|-8-------------|-5-------------|-----------------|
|-6---------6/-8-|-6-------------|-3------3------|-5--8--6---------|
|----------------|---------------|--------1------|-3--6--5---------|


Electric 1:
	 	 __________________ _________________________
                 |1.,2.,3.         |4.                       |
|----------------|-----------------|-------------------------|
|----------------|-----------------|-------------------------|
|*---------------|----------------*|-------------------------|
|*-5-------------|----------------*|----------2--3--5--3-----|
|--3------3------|-5--8--6---------|-0--2--3--------------7--|
|---------1------|-3--6--5---------|-------------------------|

Electric 2:
                 __________________ _________________________
                 |1.,2.,3.         |4.                       |
|----------------|-----------------|-------------------------|
|----------------|-----------------|-------------------------|
|*---------------|----------------*|-------------------------|
|*---5-----------|----------------*|-2-----------------------|
|----3----3------|-5--8--6---------|-0-----------------------|
|---------1------|-3--6--5---------|-------------------------|

end Section E;

play Section C

play Section D four times

play Section E


Section F:

Electric 2:
[ Tab from: http://www.guitartabs.cc/tabs/k/kinetic_dissent/reworked_tab.html ]
|--------------------------------------------------sl------sl-----|
|-------7-7-7-------7-7-7-----7-7-------7-7-7-----7/8-8-8-8\7-7-7-|
|-5-5-5-------5-5-5-------5-5-----5-5-5-------5-5-----------------|
|-----------------------------------------------------------------|
|-----------------------------------------------------------------|
|-----------------------------------------------------------------|

Electric 2 ctd: 

|-----------------------------------------------------------------|
|-------7-7-7-------7-7-7-----7-7-------7-7-7-------7-7-7-----7-7-|
|-4-4-4-------4-4-4-------4-4-----4-4-4-------4-4-4-------4-4-----|
|-----------------------------------------------------------------|
|-----------------------------------------------------------------|
|-----------------------------------------------------------------|

Repeat Electric 2 part 15 times, adding electrics 1 & 3.

Electric 1:

|--------|--------|--------|--------|--------|--------|--------|--------|
|--------|--------|--------|--------|--------|--------|--------|--------|
|--------|--------|--------|--------|--------|--------|--------|--------|
|--------|--------|--------|--------|--------|--------|--------|--------|
|--------|--------|--------|--------|--------|--------|--------|--------|
|-3------|--------|--------|--------|-3------|-2------|-3------|-2------|

Electric 1 ctd:

|----------------------------|----------------------------|
|----------------------------|----------------------------|
|*---------------------------|---------------------------*|
|*---------------------------|---------------------------*|
|----------------------------|----------------------------|
|-3--------------------------|-2--------------6-5----6----|

Electric 1 ctd:

|---------------------------------|-----------------------------------|
|---------------------------------|-----------------------------------|
|---------------------------------|-----------------------------------|
|---------------------------------|-----------------------------------|
|---------------------------------|-----------------------------------|
|-3-3-3-3-3-3-3-3-3-3-3-3-3-3-3-3-|-2-2-2-2-2-2-2-2-2-2-6-5-5-5-6-6-6-|

Repeat this last part 9 times, under solo (electric 3)


Electric 3: (SOLO)

|-11------10--8-----10--11--|-10------------------------|
|---------------------------|------------11--10---------|
|---------------------------|---------------------------|
|---------------------------|---------------------------|
|---------------------------|---------------------------|
|---------------------------|---------------------------|

	    h  p             sl
|-11------10-11-10-8----15--15/17-|-10------------------------|
|---------------------------------|------------11--10---------|
|---------------------------------|---------------------------|
|---------------------------------|---------------------------|
|---------------------------------|---------------------------|
|---------------------------------|---------------------------|

       -- hold --                      -- hold --
|-18b20----------20b18----------|-20b22-----------17----------|
|-------------------------------|-----------------------------|
|-------------------------------|-----------------------------|
|-------------------------------|-----------------------------|
|-------------------------------|-----------------------------|
|-------------------------------|-----------------------------|


          sl
|-14-15-17/18-17-15-14-15-17-15-14----------------------------------------|
|----------------------------------16-15-16-15-13-15-13----13-15-13-------|
|-------------------------------------------------------15----------15-12-|
|-------------------------------------------------------------------------|
|-------------------------------------------------------------------------|
|-------------------------------------------------------------------------|


|-------------------12---------17------------------------|
|--------------------------------------------------------|
|-14-----------------------------------------------------|
|--------------------------------------------------------|
|--------------------------------------------------------|
|--------------------------------------------------------|

half measure (Repeated twice):

|---h--p--p-----p-----------h--p--p-----p---------|
|-11-13-11-10-11-10----10-11-13-11-10-11-10----10-|
|-------------------12----------------------12----|
|-------------------------------------------------|
|-------------------------------------------------|
|-------------------------------------------------|

half measure (Repeated twice):

|---h--p--p----p--------h--p--p----p--------|
|-10-11-10-8-10-8----8-10-11-10-8-10-8----8-|
|-----------------11-------------------11---|
|-------------------------------------------|
|-------------------------------------------|
|-------------------------------------------|

half measure (Repeated twice):

|---h--p--p-----p-----------h--p--p-----p---------|
|-11-13-11-10-11-10----10-11-13-11-10-11-10----10-|
|-------------------12----------------------12----|
|-------------------------------------------------|
|-------------------------------------------------|
|-------------------------------------------------|

half measure (Repeated twice):

|---h--p--p----p--------h--p--p----p--------|
|-10-11-10-8-10-8----8-10-11-10-8-10-8----8-|
|-----------------11-------------------11---|
|-------------------------------------------|
|-------------------------------------------|
|-------------------------------------------|


half measure: 
                    h  p     h  p
|-------------10--11-13-11-10-11-10-----10-------h--p-----h--p---/
|-10--11--13------------------------13------13-11-13-11-10-11-10-/
|----------------------------------------------------------------/
|----------------------------------------------------------------/
|----------------------------------------------------------------/
|----------------------------------------------------------------/


/----------------------------------------------------|
/-----10--------h--p----h--p---h-h----h--p---h-p-----|
/-12------12--10-12-10-8-10-8-7-8-10-8-10-8-7-8-7----|
/-------------------------------------------------10-|
/----------------------------------------------------|
/----------------------------------------------------|

				 (Trem pick these -- about 3 times each)
|-------------------------------|---------------------------------------------|
|-------------------------------|---------------------------------------------|
|-------------------------------|------------8-7-10-8-12-10-14-12-15-14-17-15-|
|-7------10------8------7-------|-10-8-12-10----------------------------------|
|-------------------------------|---------------------------------------------|
|-------------------------------|---------------------------------------------|


|-----------------------------------|-------------------------------|
|-15--------15b16------15-----------|--16------16b18--13----15--16--|
|-----------------------------------|-------------------------------|
|-----------------------------------|-------------------------------|
|-----------------------------------|-------------------------------|
|-----------------------------------|-------------------------------|



|------------------------------------------------------18-15-|
|-15------------------------------------------15-16-18-------|
|-------------17----------15---------14-15-17----------------|
|------------------------------------------------------------|
|------------------------------------------------------------|
|------------------------------------------------------------|



|-17--------------------------------------------------------------
|-----------------------------------------------------------------
|-----------------------------------------------------------------
|-5-
Comments