Kinesis - Billboard Beauty Chords & Tabs

 

Billboard Beauty Chords & Tabs

Kinesis Chords & Tabs

Version: 1 Type: Tab 0 ratings
1 star 2 stars 3 stars 4 stars 5 stars
comments

Billboard Beauty Tab

Intro: Light Distortion
e-----------------------------------------------------------
B-----------------------------------------------------------
G-----------------------------------------------------------
D-7--7--7-7-7--7--7--7----7--7--7-7-7-----2--2--------------
A-4--4--4-4-4--5--5--5----7--7--7-7-7-----2--2--------------
E-------------------------5--5--5-5-5--0--0--0--------------



Pre verse: At this point come in with distortion
e-----------------------------------------------------------
B-----------------------------------------------------------
G----------------------*------------------------------------
D-7--7--7-7-7--7--7--7-7--7--7--7--7--2--2--2---------------
A-4--4--4-4-4--5--5--5-7--7--7--7--7--2--2--2---------------
E----------------------5--5--5--5--5--0--0--0---------------

e-----------------------------------------------------------
B-----------------------------------------------------------
G-----------------------------------------------------------
D-7--7--7--7-7-7--7--7--7----7--7--7-7-7--2--2--2-----------
A-4--4--4--4-4-4--5--5--5----7--7--7-7-7--2--2--2-----------
E----------------------------5--5--5-5-5--0--0--0-----------



Verse:
e-----------------------------------------------------------
B-----------------------------------------------------------
G-----------------------------------------------------------
D-7--7--7-7-7--7--7--7----7--7--7-7-7--2--2--2--------------
A-4--4--4-4-4--5--5--5----7--7--7-7-7--2--2--2--------------
E-------------------------5--5--5-5-5--0--0--0--------------

At this point come in with distortion
e-----------------------------------------------------------
B-----------------------------------------------------------
G----------------------*------------------------------------
D-7--7--7-7-7--7--7--7-7--7--7--7--2--2--2--2---------------
A-4--4--4-4-4--5--5--5-7--7--7--7--2--2--2--2---------------
E----------------------5--5--5--5--0--0--0--0---------------



Chorus: Distortion
e----------------------------------------------------------
B----------------------------------------------------------
G--------------7--7--7----------------6--6--6--6-----------
D--4--4--4--4--7--7--7--7----7--7-77--6--6--6--6-----------
A--4--4--4--4--5--5--5--7----7--7-77--4--4--4--4-----------
E--2--2--2--2-----------5----5--5-55-----------------------

e-----------------------------------------------------------
B-----------------------------------------------------------
G--------------7--7--7--7-----------------------------------
D--4--4--4--4--7--7--7--7--7--7--7--7--7--7--7--7-----------
A--4--4--4--4--5--5--5--5--7--7--7--7--7--7--7--7-----------
E--2--2--2--2--------------5--5--5--5--5--5--5--5-----------
SECOND GUITAR
e-----------------------------------------------------------
B-----------------------------------------------------------
G-----------------------------------------------------------
D---------------------2/7--7--7--7--6----7---9-------------
A-----------------------x--x--x--x--x----x---x--------------
E-----------------------5--5--5--5--4----5---7--------------



Link: Wah Wah; Other guitar play with harmonics
e----------------------------------------------------------------------
B----------------------------------------------------------------------
G----------------------------------------------------------------------
D--7------7------7------7-----------------------------------------------
A--7------7------7------7-----------------------------------------------
E--5p0----5p0----5p0----5p0----------------------------------------------


Verse

Chorus

[ Tab from: http://www.guitartabs.cc/tabs/k/kinesis/billboard_beauty_tab.html ]
Link:
e------
B------ Use a flanger, delay, and wah wah and let ring.
G------
D--7---
A--7---
E--5---


Interlude: 

Guitar 1: Delay
e----------------------------------------------------------------------
B----------------------------------------------------------------------
G--6--6--6--666---------6--6--6--666-----------------------------------
D---------------7--77----------------7--77--6--6--6--6--6--7--7--------
A----------------------------------------------------------------------
E----------------------------------------------------------------------
SECOND GUITAR
e----------------------------------------------------------------------
B----------------------------------------------------------------------
G--6~---------------------------------------7~-------------------9~----
D----------------------------------------------------------------------
A----------------------------------------------------------------------
E----------------------------------------------------------------------



e----------------------------------------------------------------------
B----------------------------------------------------------------------
G--6--6--6--666--------6--6--6--666------------------------------------
D---------------7--77---------------7--77--6--6--6--6--6--7--7---------
A----------------------------------------------------------------------
E----------------------------------------------------------------------
SECOND GUITAR (Quiet Distortion)
e----------------------------------------------------------------------
B----------------------------------------------------------------------
G----------------------------------------------------------------------
D--7--7--7--7--7--7--7--7--7--7--7--7--7--7--7--7--7--7--7--7--7-------
A--5--5--5--5--5--5--5--5--5--5--5--5--5--4--4--4--4--4--4--4--4-------
E----------------------------------------------------------------------


Link 3:
e---------
B---------
G--//x----
D--//x----
A--//x----
E--//x----


Chorus

Link:
e-------------------------------
B-------------------------------
G-------------------------------
D--7----X--X--X--X--X--X--X--X--
A--7----X--X--X--X--X--X--X--X--
E--5----X--X--X--X--X--X--X--X--

Chorus


Link:
e---------
B---------
G-------6-
D--7------
A--7------
E--5------


Interlude 2: Delay and flanger
e----------------------------------------------------------------------
B----------------------------------------------------------------------
G--6--6--6--666---------6--6--6--666-----------------------------------
D---------------7--77----------------7--77--6--6--6--6--6--7--7--------
A----------------------------------------------------------------------
E----------------------------------------------------------------------
SECOND GUITAR
e----------------------------------------------------------------------
B----------------------------------------------------------------------
G--6~---------------------------------------7~-------------------9~----
D----------------------------------------------------------------------
A----------------------------------------------------------------------
E----------------------------------------------------------------------



e---------------------------------------------
B---------------------------------------------
G--6--6--6--666--------6--6--6--666--------6--
D---------------7--77---------------7--77--7--
A------------------------------------------7--
E------------------------------------------5--
SECOND GUITAR (Distortion)
e---------------------------------------------
B---------------------------------------------
G------------------------------------------7--
D--7----7----7----7----7----7----7----7----7--
A--4----4----4----4----4----4----4----4----5--
E---------------------------------------------
Comments