Kinesis - And They Obey Chords & Tabs

 

And They Obey Chords & Tabs

Kinesis Chords & Tabs

Version: 1 Type: Tab 0 ratings
1 star 2 stars 3 stars 4 stars 5 stars
comments

And They Obey Tab

   
Intro/ (figure 1.0) 
E---------------------------|-----------|-------------------------------
B---------------------------|--11-------|-------------------------------
G---------------------------|--13^------|-------------------------------
D---------7-7-7-7-----------|-----------|-------------------------------
A---------7-7-7-7-----------|-----------|-------------------------------
E---------5-5-5-5-----------|-----------|-------------------------------
A5 G1 G2 


E-----------------------------------------------------------------------
B-----------------------------------------------------------------------
G-----------------------------------------------------------------------
D-----------------------------------------------------------------------
A-----------------------------------------------------------------------
E-----------------------------------------------------------------------
G1 

verse x 2 (first verse around appgeio) 
E-----------------------------------------|
B-----------------------------------------|
G------------5-5-5-5--4-4-4-4-------------|
D---7-7-7-7--5-5-5-5--4-4-4-4--2-2-2-2----|
A---7-7-7-7--3-3-3-3--2-2-2-2--2-2-2-2----|
E---5-5-5-5--------------------0-0-0-0----|

[ Tab from: http://www.guitartabs.cc/tabs/k/kinesis/and_they_obey_tab.html ]
chrous x 2 
-------------------------------------------------------------------------------------|
----5-5-5-5--5-5-5-5-----------------------------------------10-10-10-10--10-10-10-10|
----5-5-5-5--5-5-5-5--5-5-5-5--5-5-5-5----8-8-8-8---8-8-8-8--10-10-10-10--10-10-10-10|
----3-3-3-3--3-3-3-3--5-5-5-5--5-5-5-5----8-8-8-8---8-8-8-8--8--8--8--8---8--8--8--8-|
----------------------3-5-5-5--3-5-5-5----6-6-6-6---6-6-6-6--------------------------|

----------------------------------------------------------------|
----5-5-5-5--5-5-5-5-----------------------------------------10-|
----5-5-5-5--5-5-5-5--5-5-5-5--5-5-5-5----8-8-8-8---8-8-8-8--10-|
----3-3-3-3--3-3-3-3--5-5-5-5--5-5-5-5----8-8-8-8---8-8-8-8--8--|
----------------------3-5-5-5--3-5-5-5----6-6-6-6---6-6-6-6-----|


G14 G12 D12 D13 G12 G14 B12 G14 G12 D12 D13 G12
E-----------------------------------------------------------------------
B----------------------12-----------------------------------------------
G----14-12-------12-14----14-12------12---------------------------------
D----------12-13----------------12-13-----------------------------------
A-----------------------------------------------------------------------
E-----------------------------------------------------------------------


G14 G12 D12 D13 D12 
E----------------------
B----------------------
G----14-12-------------
D----------12-13-12----
A----------------------
E-----------------------


order of song

intro
verse x 2
figure 1.0 x2
verse x 4
chrous x 2
figure 1.0
verse 
chrous
figure 1.0
verse
chrous 
figure 1.0
Comments