Kind Of Like Spitting - Passionate Chords & Tabs

 

Passionate Chords & Tabs

Kind Of Like Spitting Chords & Tabs

Version: 1 Type: Tab 0 ratings
1 star 2 stars 3 stars 4 stars 5 stars
comments

Passionate Tab

   
#-----------------------------------------------------------------------------#
#-- File created with Instab - http://www.pconline.com/~smcarey/instab.html --#
#-----------------------------------------------------------------------------#

Author/Artist: Kind of Like Spitting
Title: Passionate
Album: Bridges Worth Burning (2002)
Transcribed by: Andrew Biles
Email: andrewbiles@hotmail.com

Check out these sites for kind of like spitting;
http://www.insound.com/mp3/searchmp3.cfm?searchby=kind%20of%20like%20spitting
http://www.epitonic.com/artists/kindoflikespitting.html


The distorted parts are missing from this tab, but it will be updated as soon as
I figure them out.  The rest of it sounds good to me, I tried being as accurate
as I could with this tab so it's probably wrong, but give it a go and see what
you think.  oh, and the last note in the song that I have put down is bent loads
of times until the second line of the ending.

Totally correct lyrics at the end, ones under tab are what I thought they were,
lyrics from www.ultimate-lyrics.de

-3--------3--------3------------------3---------------------------------------
-3--------3--------6--/8----6----3----3---------------------------------------
-5--------5--------5-----7----5----3--5--------5------------------------------
-5--------5--------5------------------5--------5------------------------------
-3--------0--------3------------------3--------3------------------------------
------------------------------------------------------------------------------
                                                  Brother, friend, it's not   

----------------------------------------------------------------------------3-
------------------------3---------------------------------------------------3-
------------------------3---------------------------------------------------5-
------------------------5---------------------------------------------------5-
----------------------------------------------------------------------------3-
------------------------------------------------------------------------------
 like I want this to end, sister, companion, it's not like I plan to abandon. 

--------------------------------------------3----------------------3----------
-----------------------------3--------------3----------------------3----------
-----------------------------5---3---5------5---------------------------------
-----------------------------5---3---5------5---------------------------------
-----------------------------0---1---3------3---------------------------------
------------------------------------------------------------------------------
 But I have been here before.                  your pages get ripped, I can   

--------------------------------------------------------------3---------------
--------------------------------------------------------------3---------------
-----------------5--------------------------------------------5---------------
-----------------5--------------------------------------------5---------------
-----------------3--------------------------------------------3---------------
------------------------------------------------------------------------------
 tell by the weight in your face, that you can't be trusted.  But I have      

-3----------------------------------------------------------------------------
-3------------/8---6----------------------------------------------------------
-5---------------7--------5---3------------------------3----------------------
-5----5----------------5-------------------------------5----------------------
-----------------------0------------------------------------------------------
------------------------------------------------------------------------------
 been here before.             There's nothing behind it.  You can't tell us  

------------------------------------------------------------------------------
------------------------------------------------------------------------------
------------------------------------------------------------------------------
------------------------------------------------------------------------------
------------------------------------------------------------------------------
------------------------------------------------------------------------------
 till we're all together, life at sea and presidential timber.  And we're     

------------------------------------------------------------------------------
------------------------------------------------------------------------------
------------------------------------------------------------------------------
------------------------------------------------------------------------------
------------------------------------------------------------------------------
------------------------------------------------------------------------------
 followed up one by one, cos I like you, I like you.  See your hands          

------------------------------------------------------------------------------
------------------------------------------------------------------------------
------------------------------------------------------------------------------
------------------------------------------------------------------------------
------------------------------------------------------------------------------
------------------------------------------------------------------------------
 collapsing, till we find some kind of space, it comes on slow and then it    

---------------------------------3--------------------------------------------
--------------3---------------------------------------------------------------
--------------5---------------------------------------------------------------
--------------5---------------------------------------------------------------
--------------3---------------------------------------------------------------
------------------------------------------------------------------------------
 takes over.  Let's be passionate, it's not like we'll get another chance to  

------------------------------------------------------------------------------
------------------------------------------------------------------------------
------------------------------------------------------------------------------
------------------------------------------------------------------------------
------------------------------------------------------------------------------
------------------------------------------------------------------------------
 do this, don't be embarassed, go over the top and come up from the bottom.   

------------------------------------------------------------------------------
-3----------------------------------------------------------------------------
-5----------------------------------------------------------------------------
-5----------------------------------------------------------------------------
-3----------------------------------------------------------------------------
------------------------------------------------------------------------------
 Let's be passionate, it's not like we'll get another chance to do this,      

------------------------3-----------------------------------------------------
------------------------3--------------------6---------------------6-6-6-6----
------------------------5----------------------5------------------------------
------------------------5-----------------------------------------------------
------------------------3-----------------------------------------------------
------------------------------------------------------------------------------
 don't be embarassed.     Your heart, your lips, are parts of your being      
[ Tab from: http://www.guitartabs.cc/tabs/k/kind_of_like_spitting/passionate_tab.html ]
---------------------------------------------------------3--------------------
----------------------------6-6-6------------------------3--------------------
-------------5--------------------7----------------------5--------------------
-------------5-------------------------------------------5--------------------
-------------3-------------------------------------------3--------------------
------------------------------------------------------------------------------
 that I miss, they have seasoned me, over the last year.  But haven't we      

------------------3---------------3-------------------------------------------
--6---------------6---------------3-------------------------------------------
------------------5---------------5-------------------------------------------
----------------------------------5-------------------------------------------
----------------------------------3-------------------------------------------
------------------------------------------------------------------------------
 been here before?   and we've got something against some words, when         

------------------------------------------------------------------------------
------------------------------------------------------------------------------
-----------------------------5------------------------------------------------
-----------------------------5------------------------------------------------
-----------------------------3------------------------------------------------
------------------------------------------------------------------------------
 there's nothing behind it.  I wanna take these little minutes, try to find   

------------------------------------------------------------------------------
------------------------------------------------------------------------------
------------------------------------------------------------------------------
------------------------------------------------------------------------------
------------------------------------------------------------------------------
------------------------------------------------------------------------------
 myself some space, I wanna relive little minutes and try to keep a train     

------------------------------------------------------------------------------
------------------------------------------------------------------------------
------------------------------------------------------------------------------
------------------------------------------------------------------------------
------------------------------------------------------------------------------
------------------------------------------------------------------------------
 awake.  I wanna relive little minutes, but they just keep stacking upon      

------------------------------------------------------------------------------
-----5/7\5\3------------------------------------------------------------------
-------------5----------------------------------------------------------------
------------------------------------------------------------------------------
------------------------------------------------------------------------------
------------------------------------------------------------------------------
 themselves.  You can make it fit when it works like this but there becomes   

-----------------------------------------8-8/9\9-6-8-8/9\8-6-8-8/9\8-6-8------
---------6-8-6-8-6-8-6-8-6-8-6-8-6-8-6-8--------------------------------------
------------------------------------------------------------------------------
------------------------------------------------------------------------------
------------------------------------------------------------------------------
------------------------------------------------------------------------------
 a time                                                                       

-8/9\8-6---------------------------------8-8/9\8-6-8-8/9\8-6-8-8/9\9-6-8------
---------6-8-6-8-6-8-6-8-6-8-6-8-6-8-6-8--------------------------------------
------------------------------------------------------------------------------
------------------------------------------------------------------------------
------------------------------------------------------------------------------
------------------------------------------------------------------------------
                                                                              

-8/9\8-6--8p6-------6------8p6-----------8p6-------------8---8p6--------------
--------------6h8-8---8--------6h8-8-8^------6h8-8---------------6h8-8--8-8---
------------------------5--------------------------5---5----------------------
-----------------------------------------------------8------------------------
------------------------------------------------------------------------------
------------------------------------------------------------------------------
                                                                              

-8p6-------6------8p6------------6----13----/15-------------------------------
-----6h8-8-----8------6h8-8--8-8-----------------------------12^--------------
-------------5----------------------------------------------------------------
------------------------------------------------------------------------------
------------------------------------------------------------------------------
------------------------------------------------------------------------------
                                          Let's be passionate, it's not like  

------------------------------------------------------------------------------
------------------------------------------------------------------------------
------------------------------------------------------------------------------
------------------------------------------------------------------------------
------------------------------------------------------------------------------
------------------------------------------------------------------------------
 we'll get another chance to do this, don't be embarassed, go over the top    

------------------------------------------------------------------------------
------------------------------------------------------------------------------
------------------------------------------------------------------------------
------------------------------------------------------------------------------
------------------------------------------------------------------------------
------------------------------------------------------------------------------
 and up from the bottom.  Let's be passionate, it's not like we'll get        

------------------------------------------------
------------------------------------------------
------------------------------------------------
------------------------------------------------
------------------------------------------------
------------------------------------------------
 another chance to do this, don't be embarassed.

_________________
Correct Lyrics:

Passionate
Brother friend
It's not like I want this to end
Sister companion
It's not like I planned to abandon
I have been here before
Your pages get flipped
I can tell by the weight in your face
That you can't be trusted
I have been here before
There's nothing behind it
You can't tell us that we're all together
Like a sea of presidential timber
We are filled up one by one
I like you! I like you!
We feel our heads collapsing
Until we find some kind of space
It comes on slow and then it takes over
Let's be passionate
It's not like we'll get another chance to do this
Don't be embarrassed
Go over the top but come up from the bottom
Let's be passionate
It's not like we'll get another chance to do this
Don't be embarrassed
Your heart, your lips
The parts of your being that I miss
They have seasoned me over the last year
But haven't we been here before
We've got something against the words
When there's nothing behind it
I want to take these little minutes
Try to find myself some space
I want to relive little minutes
Try to keep the dream awake
I want to relive little minutes
But they just keep stacking up on themselves
You can't make it fit when it works like this
If it becomes a job
Let's be passionate
It's not like we'll get another chance to do this
Don't be embarrassed
Go over the top but come up from the bottom
Let's be passionate
It's not like we'll get another chance to do this
Don't be embarrassed
Comments