Kind Of Like Spitting - Blue Period Chords & Tabs

 

Blue Period Chords & Tabs

Kind Of Like Spitting Chords & Tabs

Version: 1 Type: Tab 0 ratings
1 star 2 stars 3 stars 4 stars 5 stars
comments

Blue Period Tab

Artist/Band: Kind of Like Spitting
Song: Blue Period
Album: Nothing Makes Sense Without It
Transcribed by: Kyle Massaar - 03/24/02 revised 03/17/03
E-mail: screamingatthestars@hotmail.com
Website: http://www.massaar.tk/

[Overly...]
e|-------------------------------------------------------------|
B|-------------------------------------------------------------|
G|------3---------3------3-4-3----3-4-3----3-1---3-1---1-------|
D|----4---4-----4---4--------------------4-----4-----4---------|
A|--2---------2--------1--------1------------------------------|
E|-------------------------------------------------------------|

e|--------------------------------------2----x-----3-----------|
B|------4-2-----------------------------4----2-----4-----------|
G|----4-----4-3-1--------3-------3------3----3-----3-----------|
D|--4-------------4----4--4----4---4----4----4-----5-----------|
A|-------------------2-------2---------------------------------|
E|-------------------------------------------------------------|

e|-------------------------------------------------------------|
B|-------------------------------------------------------------|
G|------3---------3------3-4-3----3-4-3----3-1---3-1---1-------|
D|----4---4-----4---4--------------------4-----4-----4---------|
A|--2---------2--------1--------1------------------------------|
E|-------------------------------------------------------------|

		 [That is was just...]
		    		   [Like a musical...]

e|-----------------2----2---0------2---6----4----6----2---2--0-|
B|------2-4[ring]--4----2---0------4---7----5----7----4---2--0-|
G|----4------------3----3---1------3---6----4----6----3---3--1-|
D|--4--------------2----4---2------4---8----6----8----4---4--2-|
A|-----------------2----4---2------2--------4---------2---4--2-|
E|-----------------2----2---0------2--------4---------2---2--0-|
[ Tab from: http://www.guitartabs.cc/tabs/k/kind_of_like_spitting/blue_period_tab.html ]
[Why does boy...]
e|---2---0-------4---2---0-------------------------------------|
B|---2---0-------5---2----0------------------------------------|
G|---3---1--3x---6---3-----1-----------------------------------|
D|---4---2-------6---4------2----------------------------------|
A|---4---2-------4---4-------2---------------------------------|
E|---2---0-------4---2--------0--------------------------------|

[We are in the...]	      [And its just like...]
e|-------------------------0--------6----4----2---2--0---------|
B|--4----2-----2-----------0--4-----7----5----4---2--0---------|
G|----3----3-3---3--3------1----3---6----4----3---3--1---------|
D|--------------------4----2--------8----6----4---4--2---------|
A|-----2----2-----------2--2-----2-------4----2---4--2---------|
E|-------------------------0-------------4----2---2--0---------|

[Its just like...]			   [Choice ain't...]
e|---2---6----4----6----4----6----4----2-----0------2---0------|
B|---4---7----5----7----5----7----5----4-----0------4---0------|
G|---3---6----4----6----4----6----4----3-----1--2x--3---1------|
D|---4---8----6----8----6----8----6----4-----2------4---2------|
A|---2--------4---------4---------4----2-----2------2---2------|
E|---2--------4---------4---------4----2-----0------2---0------|

Over the "Choice ain't mine" part:
e|--7-7-6-6----------------------------7-7-6-6-----------------|
B|----------7-7/9--2x---9-9-9-7-9-7-9----------7-7/9-----------|
G|-------------------------------------------------------------|
D|-------------------------------------------------------------|
A|-------------------------------------------------------------|
E|-------------------------------------------------------------|


e|-------------------------------------------------------------|
B|-------------------------------------------------------------|
G|-------------------------------------------------------------|
D|-4/8-4/8--4-3--4/8--4/8-4-3----------------------------------|
A|-2/6-2/6--2-1--2/6--2/6-2-1----------------------------------|
E|-------------------------------------------------------------|

Then play the "Choice ain't mine" part again.
Comments