Kim Wilde - You Keep Me Hanging On Chords & Tabs

 

You Keep Me Hanging On Chords & Tabs

Kim Wilde Chords & Tabs

Version: 1 Type: Bass Tab

You Keep Me Hanging On Bass Tab

Title: Keep me hanging on
Artist: Kim Wilde
Album: Singles Collection 
Tabber: Steph
Email: cyberbassist@hotmail.com


intro
                   Fill
G|---------------|--343--------------------------------------------------|
D|*-------------*|-----4-4-6---------------------------------------------|
A|*-------5~-6~-*|------6------------------------------------------------|
E|-3~-1~---------|-------------------------------------------------------|


Verse
G|------------------------343--------------------------------------------|
D|---------------------------4--4----------------------------------------|
A|-----5-6---------5-6---------6-----------------------------------------|
E|-3-1------1/3--1-------------------------------------------------------|

Chorus:
Drum enter...
G|-----------------------------7--7--7--7--8--8--8-----------------------|
D|*--5--5--5--5---3--3--3--3--------------------------------------------*|
A|*---------------------------5--5--5--5--6--6--6-----------------------*|
E|--3--3--3--3---1--1--1--1-------------------------1--------------------|
[ Tab from: http://www.guitartabs.cc/tabs/k/kim_wilde/you_keep_me_hanging_on_btab.html ]
Verse
G|-----------------------------------------------------------------------|
D|---------------------------------1-1-1-1-1-1-1-1-----------------------|
A|-1-1-1-1-1-1-1-1-1-1-1-1-1-1-1-1-----------------1-1-1-1-1-1-1-1-------|
E|-----------------------------------------------------------------------|


G|-----------------------------------------------------------------------|
D|---------------------------------1-1-1-1-1-1-1-1-----------------------|
A|-1-1-1-1-1-1-1-1-1-1-1-1-1-1-1-1-----------------1-1-1-1-1-1-1-1-------|
E|-----------------------------------------------------------------------|

G|-----------------------------------------------------------------------|
D|-----------------------------------------------------------------------|
A|---------------------------------5-5-5-5-5-5-5-5-5-5-5-5-5-5-5-5-------|
E|-1-1-1-1-1-1-1-1-1-1-1-1-1-1-1-1---------------------------------------|


Break 2:00
G|-----------------------------------------------------------------------|
D|-----------------------------------------------------------------------|
A|----------6~--3~-------------------------------------------------------|
E|---3~--1~--------------------------------------------------------------|

Fun to play, enjoy