Killswitch Engage - When Darkness Falls Chords & Tabs

 

When Darkness Falls Chords & Tabs

Killswitch Engage Chords & Tabs

Version: 2 Type: Tab 0 ratings
1 star 2 stars 3 stars 4 stars 5 stars
comments

When Darkness Falls Tab

   
-------------------------------------------------------------------------------
		 When Darkness Falls - Killswitch Engage
-------------------------------------------------------------------------------
Tabbed by: IbanezFreak555
Email: theasiankid555@end-war.com

Tuning: C,G,C,F,A,D

Intro/Verse
|-------------------------------------------------------|
|-------------------------------------------------------|
|-------------------------------------------------------|
|---------------------------------------------8888-7777-|
|-4---3---5-4---4---3---5-4---4---3---5-4---4-7777-6666-|
|-4-0-3-0-5-4-0-4-0-3-0-5-4-0-4-0-3-0-5-4-0-4-----------|
PM  .   .     .   .   .     .   .   .     .             

|----------------------------------------------------------|
|----------------------------------------------------------|
|----------------------------------------------------------|
|----------------------------------------------------------|
|-4---3---5-4---4---3---5-4---4---3---5-4---4--0-0-4-3-<3>-|
|-4-0-3-0-5-4-0-4-0-3-0-5-4-0-4-0-3-0-5-4-0-4--0-0-4-3-----|
PM  .   .     .   .   .     .   .   .     .    . . . .

|---------------------------------------------------------|
|---------------------------------------------------------|
|---------------------------------------------------------|
|---------------------------------------------------------|
|-12\\--4---3---5-4---4---4---3---5-4---4---4-5-4-3-0-<3>-|
|-12\\--4-0-3-0-5-4-0-4---4-0-3-0-5-4-0-4---4-5-4-3-0-----|
PM        .   .     .       .   .     .     . . . . .


|---------------------------------------------------------------|
|---------------------------------------------------------------|
|---------------------------------------------------------------|
|---------------------------------------------------------------|
|-4---3---5-4---4---------4---3---5-4---4---------4-5-4-3-0-----|
|-4-0-3-0-5-4-0-4-0-0-0-0-4-0-3-0-5-4-0-4-0-0-0-0-4-5-4-3-0-<3>-|
PM  .   .     .   . . . .   .   .     .   . . . . . . . . .       


Pre-Chorus
|----------------------------------------------------------------------|
|----------------------------------------------------------------------|
|-6/7-7-7--6/7-7-7--6/7-7-7--6/7-7-7--7\\5-5-5--7\\5-5-5--6/7-7-7--5-5-|
|----------------------------------------------------------------------|
|-4/5-5-5--4/5-5-5--4/5-5-5--4/5-5-5--5\\3-3-3--5\\3-3-3--4/5-5-5--3-3-|
|----------------------------------------------------------------------|


|----------------------------------------------------|
|----------------------------------------------------|
|-12/14-14-14--12/14-14-14--14/17-17-17--14/17-17-17-|
|----------------------------------------------------|
|-10/12-12-12--10/12-12-12--12/15-15-15--12/15-15-15-|
|----------------------------------------------------|
[ Tab from: http://www.guitartabs.cc/tabs/k/killswitch_engage/when_darkness_falls_tab_ver_2.html ]
|----------------------------------------------------|
|----------------------------------------------------|
|-14\\12-12-12--14\\12-12-12--12\\7-7-7--7-7-7-7-7-7-|
|----------------------------------------------------|
|-12\\10-10-10--12\\10-10-10--10\\5-5-5--5-5-5-5-5-5-|
|----------------------------------------------------|


Chorus
Guitar 1
|-------------------------------------------------------|
|-------------------------------------------------------|
|-3--3--3--5-----------5--3--3--3--5--------------------|
|-3--3--3--5--0--0--0--5--3--3--3--5--0--0--------------|
|-1--1--1--3--0--0--0--3--1--1--1--3--0--0--0-3-3-0-5-3-|
|-------------0--0--0-----------------0--0--0-3-3-0-5-3-|
PM                                          . . . . . .

Guitar 2
|------------12------------------11-----|
|--------11------11----------10------10-|
|-9--10---------------9--10-------------|
|---------------------------------------|
|---------------------------------------|
|---------------------------------------|


Fill
|---------------------------------|
|---------------------------------|
|---------------------------------|
|---------------------------------|
|-4---3---5-4---4---4-5-4-3-0-<3>-|
|-4-0-3-0-5-4-0-4---4-5-4-3-0-----|
PM  .   .     .     . . . . .

Breakdown
Guitar 1
|--------------------------------|
|--------------------------------|
|--------------------------------|
|--------------------------------|
|-0-0-0-0-0-1-0--0-3-4-3-0-2-3-2-|
|-0-0-0-0-0-1-0--0-3-4-3-0-2-3-2-|
PM. . . . . . .  . . . . . . . .

Guitar 2
|------------------|
|------------------|
|------------------|
|------------------|
|------------------|
|-/////X-----------|


Both
|------------------------------------------------------------|
|------------------------------------------------6~--xxx--6~-|
|------------------------------------------------5~--xxx--5~-|
|------------------------------------------------------------|
|-0-----0---1-0--0-3-4-3-0-2-3-2--0-----0---1-0--------------|
|-0-0-0-0-0-1-0--0-3-4-3-0-2-3-2--0-0-0-0-0-1-0--------------|
PM  . .   .      . . . . . . . .    . .   .      


|----------------------------------------------------------------|
|----------------------------------------------------------------|
|----------------------------------------------------------------|
|----------------------------------------------------------------|
|-0-----0---1-0--0-3-4-3-0-2-3-2--0-----0---1-0--0-4-5-4-0-3-4-3-|
|-0-0-0-0-0-1-0--0-3-4-3-0-2-3-2--0-0-0-0-0-1-0--0-4-5-4-0-3-4-3-|
PM  . .   .      . . . . . . . .    . .   .      . . . . . . . .

Fill
Guitar 1
|----------|
|----------|
|-3-3--5-5-|
|-3-3--5-5-|
|-1-1--3-3-|
|----------|

Guitar 2
|------------12-----|
|--------11------11-|
|-9--10-------------|
|-------------------|
|-------------------|
|-------------------|

End
|-----|
|-----|
|-----|
|--8--|
|--8--|
|--8--|

| /  slide up
| \  slide down
| h  hammer-on
| p  pull-off
| ~  vibrato
| <>  harmonic
| x  Mute note
===============================================================================
Comments