Killswitch Engage - Vide Infra Chords & Tabs

 

Vide Infra Chords & Tabs

Killswitch Engage Chords & Tabs

Version: 1 Type: Tab 0 ratings
1 star 2 stars 3 stars 4 stars 5 stars
comments

Vide Infra Tab

   
Band:  Killswitch Engage
Album: Alive Or Just Breathing
Song:  Vide Infra

Transcribed By: Sean Coleman
Email:        rocknguitarist@yahoo.com


.  - palm mute           /  - slide up to
\  - slide down to       ~  - vibrato
h  - hammer on           b  - Bend
p  - pull off            Suffixes for bend
t  - tap                 f  - full bend    h - half bend
ph - pinched harmonic    q  - quarter bend t - tap bend
*  - see comment         ^  - Hold bend    r release bend
x  - Stuccatto           ~  - vibrato bend
,  - slight palm mute    () - ghost note, sustained note
"  - tremolo note         - Trill

Guitarists=Joel Stroetzl, Adam Dutkiewicz
Tuning:D Standard (low to high) D,G,C,F,A,D

Riff#1
|------------------------------------|
|------------------------------------|
|------------------------------------|
|--------------------------------5---|
|--7-------------7---8-----5--3--3---|
|---0000-000-000--000-0000-3--1------|
    .... ... ...  ...

|-------------------------------------------|
|-------------------------------------------|
|-------------------------------------------|
|---------------------------------------4---|
|--7-------------7---8-----7--3-2-3-5-3-2---|
|---0000-000-000--000-0000-5--1-0-1-3-1-----|
    .... ... ...  ... ....    . . . . .

Riff#2 (Crazy, use your pinky for the stretches)

|------------------------------------------|
|------------------------------------------|
|------------------------------------------|
|----------------25252---------------25252-|
|------2525236363----------2525236363------|
|-14141---------------14141----------------|

Fill
|-----------------|
|-----------------|
|-----------------|
|-----------5-----|
|-------6---3-----|
|--0-000-000------|
   . ... ...
Then Riff#1

Then,
Riff#3
|--------------------------------------------------|
|--------------------------------------------------|
|--------------------------------------------------|
|--4/5\4-----4/5\4---4-------------- 9/10\9--------|
|--2/3\2-----2/3\2---2-----2/3\2-----7/8 \7--7-----|
|--------0000------0---031-------0000-------0--087-|
         ....      .   ...       ....       .  ...
[ Tab from: http://www.guitartabs.cc/tabs/k/killswitch_engage/vide_infra_tab.html ]
Riff#4
|--------------------------------------------|
|--------------------------------------------|
|--------------------------------------------|GTR. 1
|--------------------------------------------|
|--------------------------------------------|
|-000-000-000-000-000-111-111-111-111-111-333|
  ... ... ... ... ... ... ... ... ... ... ...

(Let Chords Ring)
|--------------------------------------------|
|--------------------------------------------|
|--------------------------------------------|GTR. 2
|--------------------------------------------|
|-2-------------------3--------------------5-|
|-0-------------------1--------------------3-|

2nd and 4th times, Fill with
|-----------------|
|-----------------|
|-----------------|
|--9/10\9---------|
|--7/8 \7--7------|
|--------0--087---|.....3/4's way through
         .  ...

Then Chorus Riff (Riff#3)

Riff# 5
|-----------------|
|-----------------|
|-----------------|GTR. 1
|-5----7----------|
|-3----5----2-----|
|-----------0-----|

|-----------------------------------|
|----------------------------------|
|----------------------------------|GTR. 2
|-045045045045045-0450450454242----|(Throughout)
|------------------------------3---|
|----------------------------------|

GTR 1 Now plays this (X2)
|------------------------|
|------------------------|
|-5"---7"---9"-----------|
|--------------797----10-|
|-3"---5"---7"----1097---|
|------------------------|

Then (X2)
|--------------------|
|--------------------|
|-11"--12"--14"--16"-|
|--------------------|
|-9"---10"--12"--14"-|
|--------------------|

Then(X2)
|---------------------------|
|----12"-10"-12"-15"--------|
|-9"-----------------12"----|
|----9"--7"--9"--12"--------|
|-7"-----------------10"----|
|---------------------------|

Riff#6 (X4)
|-----------------|
|-----------------|
|------11--12-----|
|-----------------|
|-2----9---10-----|
|-0---------------|

Guitar 2's clean part
|---------------------------------|
|----------------(13)12(13)12(13)-|
|-----9-------------9--9--9--9----|
|---9---9--9-9----10----10--------|
|--7-7---7--7-7--7----------------|
|---------------------------------|

|------------------------------|
|------------------------------|
|-----9------------9-----------|
|---9---9--9-9--9---9--9--9-9--|
|--7-7---7--7-7--7---7--7--7-7-|
|------------------------------|

Fade Out
|---------|
|---------|
|---------|
|---------|
|--2------|
|--0------|

Comments