Killswitch Engage - To The Sons Of Man Chords & Tabs

 

To The Sons Of Man Chords & Tabs

Killswitch Engage Chords & Tabs

Version: 1 Type: Bass Tab 0 ratings
1 star 2 stars 3 stars 4 stars 5 stars
comments

To The Sons Of Man Bass Tab

Band- Killswitch Engage
Song- To The Sons Of Man

x2
|----------------------------------------------------------------------------|
|----------------------------------------------------------------------------|
|----------------------------------------------------------------------------|
|-3?3333336p33333336p33333336-6?0-3-3333336p33333336p3333333-0-0-6-6-9-9-6-6-|

---------------------------------------------------------------------------|
---------------------------------------------------------------------------|
-------------------------------------------------------------0-------------|
--3?3333336p33333336p33333336-6?0-3-3333336p33333336p3333333---3-2--3-2-1--|


x1
|---------------------------------------------------------------------|
|---------------------------------------------------------------------|
|-------------------2/5-5-5-5?-5-2\5----------------------------------|
|-1-1111114p1111111------------------1-1111114p111111-4-4-4-4-7-7-7-0-|

-----------------------------------------------------------------------|
-----------------------------------------------------------------------|
--------------------2/5-5-5-5?-5-2\5-----------------------------------|
--1-1111114p1111111------------------1-1111114p1111111----------0/15\0-|

[ Tab from: http://www.guitartabs.cc/tabs/k/killswitch_engage/to_the_sons_of_man_btab.html ]
x1
|----------------------------------------------------------------------------|
|----------------------------------------------------------------------------|
|----------------------------------------------------------------------------|
|-3?3333336p33333336p33333336-6?0-3-3333336p33333336p3333333-0-0-6-6-9-9-6-6-|

---------------------------------------------------------------------------|
---------------------------------------------------------------------------|
-------------------------------------------------------------0-------------|
--3?3333336p33333336p33333336-6?0-3-3333336p33333336p3333333---3-2--3-2-1--|


x4
|----------------------------|
|----------------------------|
|-0--------------------------|
|---3-2--3-2-1--3-2-1-?3-2-1-|


x4
|---------------------------------|
|---------------------------------|
|-0-------------------------------|
|---3-0-3-2-0-2-1-0-3-2-0-2-1-0-1-|


x4
|--------------------------------------------------------------------------|
|--------------------------------------------------------------------------|
|----------------------------------------------------------5---------4-5-7-|
|-0-0-0----0-0---0-0-0-0----0-0-----0-0-0----0-0-----0-5-8---8-5-0-7-------|


x2
|----------------------------------------------|
|----------------------------------------------|
|----------1--------3--------0-----------------|
|-0-----------------------------------5-5-5-5--|


x2
|--------------------------------------------------------------------------|
|--------------------------------------------------------------------------|
|----------------------------------------------------------5---------4-5-7-|
|-0-0-0----0-0---0-0-0-0----0-0-----0-0-0----0-0-----0-5-8---8-5-0-7-------|
Comments