Killswitch Engage - The End Of Heartache Chords & Tabs

 

The End Of Heartache Chords & Tabs

Killswitch Engage Chords & Tabs

Version: 9 Type: Tab 0 ratings
1 star 2 stars 3 stars 4 stars 5 stars
comments

The End Of Heartache Tab

   
Killswitch Engage
The End Of Heartache
Submitted By Matt Gambardella

The last tab I made had a lot of errors this would probably be better.

Guitar I  C,G,C,F,A,D 
Guitar II C,G,C,F,A,D

Intro
Guitar I *This could be played two ways...
D|-1-----1-----1-----3-----1-----1-----1-----3-----|
A|---5-----5-----5-----5--5--5-----5-----5-----5---|
F|-----5-----5-----5-----5-----5-----5-----5-----5-|
C|-------------------------------------------------|
G|-------------------------------------------------|
C|-------------------------------------------------|
P.M.   .     .     .     .     .     .     .     .
The Easier Way...           Either way it is played 6 times.
D|-------------------------------------------------|
A|-6-5---6-5---6-5---8-5--56-5---6-5---6-5---8-5---|
F|-----5-----5-----5-----5-----5-----5-----5-----5-|
C|-------------------------------------------------|
G|-------------------------------------------------|
C|-------------------------------------------------|
P.M.   .     .     .     .     .     .     .     .

Guitar II
D|-------------------------------------------------|
A|-------------------------------------------------|
F|-------------------------------------------------|
C|-0~~~~~~~~~~~~~~~~~~~~~~~~~~~~~~~~~~~~~~~~8~~~~~-|     x2
G|-0~~~~~~~~~~~~~~~~~~~~~~~~~~~~~~~~~~~~~~~~8~~~~~-|
C|-0~~~~~~~~~~~~~~~~~~~~~~~~~~~~~~~~~~~~~~~~8~~~~~-|

Guitar II
D|---------------------------------------------------|
A|---------------------------------------------------|
F|---------------9/10\9-5/7---------------9/10\9-5/7-|
C|---------------x  x x-x x---------------x  x x x x-|
G|-0000-00000----7/ 8\7-3/5-0000-00000----7/ 8\7-3/5-|
C|-0000-00000---------------0000-00000---------------|
P.M.... .....               .... .....

Guitar II
D|---------------------------------------------------|
A|---------------------------------------------------|
F|---------------9/10\9-5/7--------------------------|
C|---------------x  x x-x x--------------------------|     x2
G|-8888-88888----7/ 8\7-3/5-8888-88888----8-10-10----|
C|-8888-88888---------------8888-88888----8-10-10----|
P.M.... .....               .... .....

Guitar I
D|---------------------------------------------------|
A|---------------------------------------------------|
F|---------------------------------------------------|
C|---------------------------------------------------|
G|-0000-0000000-0000000-000--------------------------|
C|-0000-0000000-0000000-000-7h10p7h10-6h9p6h9--------|
P.M.... ....... ....... ...
Guitar II
D|---------------------------------------------------|
A|---------------------------------------------------|
F|---------------------------------------------------|
C|---------------------------------------------------|
G|-0000-0000000-0000000-000--------------------------|
C|-0000-0000000-0000000-000-7h10p7h10-6h9p6h9--------|
P.M.... ....... ....... ...

Guitar I
D|---------------------------------------------------|
A|---------------------------------------------------|
F|---------------------------------------------------|
C|---------------------------------------------------|
G|-0000-0000000-0000000-000--------------------------|
C|-0000-0000000-0000000-000-12h15p12h15-11h14p11h14--|
P.M.... ....... ....... ...
Guitar II
D|---------------------------------------------------|
A|---------------------------------------------------|
F|---------------------------------------------------|
C|---------------------------------------------------|
G|-0000-0000000-0000000-000-5h8p5h8-4h7p4h7----------|
C|-0000-0000000-0000000-000--------------------------|
P.M.... ....... ....... ...

Guitar I
D|---------------------------------------------------|
A|---------------------------------------------------|
F|---------------------------------------------------|
C|---------------------------------------------------|
G|-0000-0000000-0000000-000--------------------------|
C|-0000-0000000-0000000-000-7h10p7h10-6h9p6h9--------|
P.M.... ....... ....... ...
Guitar II
D|---------------------------------------------------|
A|---------------------------------------------------|
F|---------------------------------------------------|
C|---------------------------------------------------|
G|-0000-0000000-0000000-000--------------------------|
C|-0000-0000000-0000000-000-7h10p7h10-6h9p6h9--------|
P.M.... ....... ....... ...

Guitar I
D|---------------------------------------------------|
A|---------------------------------------------------|
F|---------------------------------------------------|
C|---------------------------------------------------|
G|-0000-0000000-0000000-000-10-10-10-----------------|
C|-0000-0000000-0000000-000-10-10-10-----------------|
P.M.... ....... ....... ...

Guitar II
D|---------------------------------------------------|
A|---------------------------------------------------|
F|---------------------------------------------------|
C|---------------------------------------------------|
G|-0000-0000000-0000000-000-10-10-10-----------------|
C|-0000-0000000-0000000-000-10-10-10-----------------|
P.M.... ....... ....... ...

Verse 
Guitar I
D|---------------------------------------------------|
A|---------------------------------------------------|
F|------------12/14\12-9/10------------12/14\12-9----|
C|-------------x  x  x x  x-------------x  x  x-x----|
G|-0000-00000-10/12\10-7/ 8-0000-00000-10/12\10-7----|
C|-0000-00000---------------0000-00000---------------|
P.M.... .....               .... .....
Guitar II
D|---------------------------------------------------|
A|---------------------------------------------------|
F|---------------9/10\9-5/7---------------9/10\9-5---|
C|---------------x  x x-x x---------------x  x x x---|
G|-0000-00000----7/ 8\7-3/5-0000-00000----7/ 8\7-3---|
C|-0000-00000---------------0000-00000---------------|
P.M.... .....               .... .....
Guitar I
D|---------------------------------------------------|
A|---------------------------------------------------|
F|------------12/14\12-9/10--------------------------|
C|-------------x  x  x x  x--------------------------|
G|-8888-88888-10/12\10-7/ 8-8888-88888----8-10-10----|
C|-8888-88888---------------8888-88888----8-10-10----|
P.M.... .....               .... .....

Guitar II
D|---------------------------------------------------|
A|---------------------------------------------------|
F|---------------9/10\9-5/7--------------------------|
C|---------------x  x x-x x--------------------------|
G|-8888-88888----7/ 8\7-3/5-8888-88888----8-10-10----|
C|-8888-88888---------------8888-88888----8-10-10----|
P.M.... .....               .... .....

Both Guitars Play Verse Again

Pre-Chorus
Guitar I
D|---------------------------------------------------|
A|---------------------------------------------------|
F|---------------------------------------------------|
C|---------------------------------------------------|
G|-0000-0000000-0000000-000--------------------------|
C|-0000-0000000-0000000-000-7h10p7h10-6h9p6h9--------|
P.M.... ....... ....... ...
Guitar II
D|---------------------------------------------------|
A|---------------------------------------------------|
F|---------------------------------------------------|
C|---------------------------------------------------|
G|-0000-0000000-0000000-000--------------------------|
C|-0000-0000000-0000000-000-7h10p7h10-6h9p6h9--------|
P.M.... ....... ....... ...

Guitar I
D|---------------------------------------------------|
A|---------------------------------------------------|
F|---------------------------------------------------|
C|---------------------------------------------------|
G|-0000-0000000-0000000-000--------------------------|
C|-0000-0000000-0000000-000-12h15p12h15-11h14p11h14--|
P.M.... ....... ....... ...
Guitar II
D|---------------------------------------------------|
A|---------------------------------------------------|
F|---------------------------------------------------|
C|---------------------------------------------------|
G|-0000-0000000-0000000-000-5h8p5h8-4h7p4h7----------|
C|-0000-0000000-0000000-000--------------------------|
P.M.... ....... ....... ...

Guitar I
D|---------------------------------------------------|
A|---------------------------------------------------|
F|---------------------------------------------------|
C|---------------------------------------------------|
G|-0000-0000000-0000000-000--------------------------|
C|-0000-0000000-0000000-000-7h10p7h10-6h9p6h9--------|
P.M.... ....... ....... ...
Guitar II
D|---------------------------------------------------|
A|---------------------------------------------------|
F|---------------------------------------------------|
C|---------------------------------------------------|
G|-0000-0000000-0000000-000--------------------------|
C|-0000-0000000-0000000-000-7h10p7h10-6h9p6h9--------|
P.M.... ....... ....... ...

Guitar I
D|---------------------------------------------------|
A|---------------------------------------------------|
F|---------------------------------------------------|
C|---------------------------------------------------|
G|-0000-0000000-0000000-000-10-10-10-----------------|
C|-0000-0000000-0000000-000-10-10-10-----------------|
P.M.... ....... ....... ...

Guitar II
D|---------------------------------------------------|
A|---------------------------------------------------|
F|---------------------------------------------------|
C|---------------------------------------------------|
G|-0000-0000000-0000000-000-10-10-10-----------------|
C|-0000-0000000-0000000-000-10-10-10-----------------|
P.M.... ....... ....... ...

Chorus
[ Tab from: http://www.guitartabs.cc/tabs/k/killswitch_engage/the_end_of_heartache_tab_ver_9.html ]
Guitar II
D|------------------------------------------------------------------|
A|------------------------------------------------------------------|
F|------------------------------------------------------------------|
C|-3333333333333333----------------55555555555555553333333355555555-| x2
G|-1111111111111111000000000000000033333333333353031111111133333333-|
C|-----------------0000000000000000---------------------------------|

Guitar I does nothing the first time but this is what happens the 2nd time.
D|------------------------------------------------------------------|
A|------------------------------------------------------------------|
F|------------------------------------------------------------------|
C|------------------------------------------------------------------|
G|------------------------------------------------------------------|
C|-----------------------------------------------------------15\\\0-|

Verse 2
Guitar I
D|------------------------------------------------------------------|
A|------------------------------------------------------------------|
F|------------------------------------------------------------------|
C|-12-0-10-0-8-0-10-0-8-0-7-0-8-0-7-0-5-0-7-0-5-0-3-0-5-0-3-0-2-0-3-|
G|------------------------------------------------------------------|
C|------------------------------------------------------------------|
P.M.. .  . . . .  . . . . . . . . . . . . . . . . . . . . . . . . .
Guitar II
D|--------------------------|
A|--------------------------|
F|---------------9/10\9-5/7-|
C|---------------x  x x-x x-|
G|-0000-00000----7/ 8\7-3/5-|
C|-0000-00000---------------|
P.M.... .....                

Guitar I
D|------------------------------------------------------------------|
A|------------------------------------------------------------------|
F|------------------------------------------------------------------|
C|-12-0-10-0-8-0-10-0-8-0-7-0-8-0-7-0-5-0-7-0-5-0-3-0-5-0-3-0-------|
G|------------------------------------------------------------3-0-5^|
C|------------------------------------------------------------------|
P.M.. .  . . . .  . . . .
Guitar II
D|--------------------------|
A|--------------------------|
F|---------------9/10\9-5---|
C|---------------x  x x x---|
G|-0000-00000----7/ 8\7-3---|
C|-0000-00000---------------|

Guitar I
D|------------------------------------------------------------------|
A|------------------------------------------------------------------|
F|------------------------------------------------------------------|
C|-12-0-10-0-8-0-10-0-8-0-7-0-8-0-7-0-5-0-7-0-5-0-3-0-5-0-3-0-2-0-3-|
G|------------------------------------------------------------------|
C|------------------------------------------------------------------|
P.M.. .  . . . .  . . . . . . . . . . . . . . . . . . . . . . . . .
Guitar II
D|--------------------------|
A|--------------------------|
F|---------------9/10\9-5/7-|
C|---------------x  x x-x x-|
G|-8888-88888----7/ 8\7-3/5-|
C|-8888-88888---------------|
P.M.... .....                

Guitar I
D|------------------------------------------------------------------|
A|------------------------------------------------------------------|
F|------------------------------------------------------------------|
C|-12-0-10-0-8-0-10-0-8-0-7-0-8-0-7-0-5-0-7-0-5-0-3-0-5-0-3-0-------|
G|------------------------------------------------------------3-0-5^|
C|------------------------------------------------------------------|
P.M.. .  . . . .  . . . .

Guitar II
D|--------------------------|
A|--------------------------|
F|--------------------------|
C|--------------------------|
G|-8888-88888----8-10-10----|
C|-8888-88888----8-10-10----|
P.M.... .....          

Guitar I
D|---------------------------------------------------|
A|---------------------------------------------------|
F|------------12/14\12-9/10------------12/14\12-9----|
C|-------------x  x  x x  x-------------x  x  x-x----|
G|-0000-00000-10/12\10-7/ 8-0000-00000-10/12\10-7----|
C|-0000-00000---------------0000-00000---------------|
P.M.... .....               .... .....
Guitar II
D|---------------------------------------------------|
A|---------------------------------------------------|
F|---------------9/10\9-5/7---------------9/10\9-5---|
C|---------------x  x x-x x---------------x  x x x---|
G|-0000-00000----7/ 8\7-3/5-0000-00000----7/ 8\7-3---|
C|-0000-00000---------------0000-00000---------------|
P.M.... .....               .... .....
Guitar I
D|---------------------------------------------------|
A|---------------------------------------------------|
F|------------12/14\12-9/10--------------------------|
C|-------------x  x  x x  x--------------------------|
G|-8888-88888-10/12\10-7/ 8-8888-88888----8-10-10----|
C|-8888-88888---------------8888-88888----8-10-10----|
P.M.... .....               .... .....

Guitar II
D|---------------------------------------------------|
A|---------------------------------------------------|
F|---------------9/10\9-5/7--------------------------|
C|---------------x  x x-x x--------------------------|
G|-8888-88888----7/ 8\7-3/5-8888-88888----8-10-10----|
C|-8888-88888---------------8888-88888----8-10-10----|
P.M.... .....               .... .....

Both Guitars Play Pre-Chorus
Guitar II Plays Chorus

Bridge
Guitar I
D|---------------------------------------------------|
A|---------------------------------------------------|
F|-3.1^----------------------------------------------|
C|---------------------------------------------------|
G|---------------------------------------------------|
C|---------------------------------------------------|

Guitar II
D|---------------------------------------------------|
A|---------------------------------------------------|
F|---------------------------------------------------|
C|---------------------------------------------------|
G|---------------0-000-0000-1-0-0000-1---------------|
C|-5p0-3h5p0-3p0-0-000-0000-1-0-0000-1---------------|
P.M.             . ... ....   . ....
Guitar II
D|---------------------------------------------------|
A|---------------------------------------------------|
F|---------------------------------------------------|
C|---------------------------------------------------|  x2
G|---------------0-000-0000-1-0-0000-0---------------|
C|-5p0-3h5p0-3p0-0-000-0000-1-0-0000-0---------------|
                 . ... ....   . .... .

Guitar I Strum Quickly
D|--------------------------------------------------------------------|
A|--------------------------------------------------------------------|
F|-777777777777777777777777777777777777777777777777777777777777777777/|
C|-xxxxxxxxxxxxxxxxxxxxxxxxxxxxxxxxxxxxxxxxxxxxxxxxxxxxxxxxxxxxxxxxxx |
G|-555555555555555555555555555555555555555555555555555555555555555555/|
C|--------------------------------------------------------------------|
Guitar II Plays the Bridge Part at a faster tempo.
Guitar I
D|------------------------------------------------------------------|
A|------------------------------------------------------------------|
F|/9/10101010101010101010101010101010101010101010101010101010101010-|
C| x  x x x x x x x x x x x x x x x x x x x x x x x x x x x x x x x-|
G|/7/ 8-8-8-8-8-8-8-8-8-8-8-8-8-8-8-8-8-8-8-8-8-8-8-8-8-8-8-8-8-8-8-|
C|------------------------------------------------------------------|

Guitar I
D|---------------------------------|
A|---------------------------------|
F|-7777777777777777777777777777777-|
C|-xxxxxxxxxxxxxxxxxxxxxxxxxxxxxxx-|
G|-5555555555555555555555555555555-|
C|---------------------------------|

Breakdown

Guitar I Clean
D|--6-6-6-6-6-6-6-6-5-5-5-5-5-5-5-5-3-3-3-3-3-3-3-3-6-6-6-6-8-8-8-8-|
A|-6-6-6-6-6-6-6-6-3-3-3-3-3-3-3-3-1-1-1-1-1-1-1-1-6-6-6-6-8-8-8-8--|
F|------------------------------------------------------------------|
C|------------------------------------------------------------------|
G|------------------------------------------------------------------|
C|------------------------------------------------------------------|
Guitar II Acoustic
D|------------------------------------------------------------------|
A|-----------------33333333333333331111111111111111--------11111111-|
F|-3333333333333333222222222222222200000000000000003333333300000000-|
C|-3333333333333333--------------------------------33333333---------|
G|------------------------------------------------------------------|
C|------------------------------------------------------------------|

Other Guitar or Guitar II (Guitar II could be used in this...the acoustic part is faint). w/Dist.
D|------------------------------------------------------------------|
A|------------------------------------------------------------------|
F|------------------------------------------------------------------|
C|---------------------------------------------------------x\\\\\\\-|
G|---------------------------------------------------------x\\\\\\\-|
C|---------------------------------------------------------x\\\\\\\-|

Guitar II Plays The Chorus 2x

On the 2nd time Guitar II Plays Guitar I Plays This...

Guitar I
D|------------------------------------------------------------------|
A|------------------------------------------------------------------|
F|-1515151515151515151515151515151514141414141414141414141417171717-|
C|--x-x-x-x-x-x-x-x-x-x-x-x-x-x-x-x-x-x-x-x-x-x-x-x-x-x-x-x-x-x-x-x-|
G|-1313133131313131313131131313131312121212121212121212121215151515-|
C|------------------------------------------------------------------|

Guitar I
D|------------------------------------------------------------------|
A|------------------------------------------------------------------|
F|-1313131313131313131313131313131315151515151515151717171717171717-|
C|--x-x-x-x-x-x-x-x-x-x-x-x-x-x-x-x-x-x-x-x-x-x-x-x-x-x-x-x-x-x-x-x-|
G|-1111111111111111111111111111111113131313131313131515151515151515-|
C|------------------------------------------------------------------|

Outro Both Guitars
D|------------|
A|------------|
F|------------|
C|------------|
G|-0000-00000-|
C|-0000-00000-|
Comments