Killswitch Engage - The End Of Heartache Chords & Tabs

 

The End Of Heartache Chords & Tabs

Killswitch Engage Chords & Tabs

Version: 1 Type: Bass Tab 0 ratings
1 star 2 stars 3 stars 4 stars 5 stars
comments

The End Of Heartache Bass Tab

   
The End Of Heartache
Killswitch Engage
Tuning: C A D G
BassJon 09:
This song requires a lot of Alternate plucking and changing notes up and down the neck, 
I recommend using a pick for tonal reasons and because it is very fast for a bass to 
so hang in there!

~=let it ring
h=hammer on

(Intro)
G|----------------------------------------------------------------------|
D|--------------------------1-0------------------1-0--------------------|
A|---1~--1~--------------------1h3------------------1-------------------|
C|-0~-0~--0-0-0-0-0-0-0-0-0-------0-0-0-0-0-0-0-0-----8-8-8-8-8-8-8-8-8-|

G----------------------------------------------|
D-1-0------------------------------------------|
A----1h3---------------------------------------|
C-------8-8-8-8-8-8-8-8-8-----8-10-10---------|


G---------------------------------------------------------------------|
D------------------1-0-------------------1-0-------------------1-0----|
A---------------------1h3-------------------1---------------------1h3-|
C-0-0-0-0-0-0-0-0-0-------0-0-0-0-0-0-0-0-----8-8-8-8-8-8-8-8-8-------|


G------------------------------|
D------------------------------|
A------------------------------|
C-8-8-8-8-8-8-8-8-8----8-10-10-|


C-0-0-0-0-0-0-0-0-0-0-0-0-0-0-0-0-0-0-0-0-0------|

G-------------------------------------------------------------|
D-------------------------------------------------------------|
A-------------------------------------------------------------|
C-0-0-0-0-0-0-0-0-0-0-0-0-0-0-0-0-0-0-0-0-0-5b5r5b5r-3b3r3b3r-|

G-------------------------------------------------------------|
D-------------------------------------------------------------|
A-------------------------------------------------------------|
C-0-0-0-0-0-0-0-0-0-0-0-0-0-0-0-0-0-0-0-0-0-9b9r9b9r-7b7r7b7r-|


G-------------------------------------------------------------|
D-------------------------------------------------------------|
A-------------------------------------------------------------|
C-0-0-0-0-0-0-0-0-0-0-0-0-0-0-0-0-0-0-0-0-0-5b5r5b5r-3b3r3b3r-|

G------------------------------------------------|
D------------------------------------------------|
A------------------------------------------1-1-1-|

(Verse 1)2X
G|---------------------------------------------------------------------|
D|------------------1-0-------------------1-0-------------------1-0----|
A|---------------------1h3-------------------1---------------------1h3-|
C|-0-0-0-0-0-0-0-0-0-------0-0-0-0-0-0-0-0-----8-8-8-8-8-8-8-8-8-------|

G-----------------------------|
D-----------------------------|
A-----------------------------|
C-8-8-8-8-8-8-8-8-8----8-10-10|

(Pre-Chorus)
G|-------------------------------------------------------------|
D|-------------------------------------------------------------|
A|-------------------------------------------------------------|
C|-0-0-0-0-0-0-0-0-0-0-0-0-0-0-0-0-0-0-0-0-0-5b5r5b5r-3b3r3b3r-|

G-------------------------------------------------------------|
D-------------------------------------------------------------|
A-------------------------------------------------------------|
C-0-0-0-0-0-0-0-0-0-0-0-0-0-0-0-0-0-0-0-0-0-9b9r9b9r-7b7r7b7r-|


G-------------------------------------------------------------|
D-------------------------------------------------------------|
A-------------------------------------------------------------|
C-0-0-0-0-0-0-0-0-0-0-0-0-0-0-0-0-0-0-0-0-0-5b5r5b5r-3b3r3b3r-|

G------------------------------------------------|
D------------------------------------------------|
A------------------------------------------1-1-1-|
C-0-0-0-0-0-0-0-0-0-0-0-0-0-0-0-0-0-0-0-0-0------|
[ Tab from: http://www.guitartabs.cc/tabs/k/killswitch_engage/the_end_of_heartache_btab.html ]
(Chorus)2X
G|-----------------------------------------------------------------|
D|-----------------------------------------------------------------|
A|-----------------------------------------------------------------|
C|-8-8-8-8-8-8-8-8-8-8-8-8-8-8-8-8-0-0-0-0-0-0-0-0-0-0-0-0-0-0-0-0-|

G-----------------------------------------------------------------------------|
D-----------------------------------------------------------------------------|
A-1-1-1-1-1-1-1-1-1-1-1-1-1-1-1-1-3-1-----------------------------------------|
C------------------------------------7-8-8-8-8-8-8-8-8-10-10-10-10-10-10-10-10|

(Verse 2) same as verse 1 2X
G|---------------------------------------------------------------------|
D|------------------1-0-------------------1-0-------------------1-0----|
A|---------------------1h3-------------------1---------------------1h3-|
C|-0-0-0-0-0-0-0-0-0-------0-0-0-0-0-0-0-0-----8-8-8-8-8-8-8-8-8-------|


G-----------------------------|
D-----------------------------|
A-----------------------------|
C-8-8-8-8-8-8-8-8-8----8-10-10|

(Pre-Chorus) same as first
G-------------------------------------------------------------|
D-------------------------------------------------------------|
A-------------------------------------------------------------|
C-0-0-0-0-0-0-0-0-0-0-0-0-0-0-0-0-0-0-0-0-0-5b5r5b5r-3b3r3b3r-|

G-------------------------------------------------------------|
D-------------------------------------------------------------|
A-------------------------------------------------------------|
C-0-0-0-0-0-0-0-0-0-0-0-0-0-0-0-0-0-0-0-0-0-9b9r9b9r-7b7r7b7r-|

G-------------------------------------------------------------|
D-------------------------------------------------------------|
A-------------------------------------------------------------|
C-0-0-0-0-0-0-0-0-0-0-0-0-0-0-0-0-0-0-0-0-0-5b5r5b5r-3b3r3b3r-|

G------------------------------------------------|
D------------------------------------------------|
A------------------------------------------1-1-1-|
C-0-0-0-0-0-0-0-0-0-0-0-0-0-0-0-0-0-0-0-0-0------|

(Chorus)2X
G|-----------------------------------------------------------------|
D|-----------------------------------------------------------------|
A|-----------------------------------------------------------------|
C|-8-8-8-8-8-8-8-8-8-8-8-8-8-8-8-8-0-0-0-0-0-0-0-0-0-0-0-0-0-0-0-0-|

G-----------------------------------------------------------------------------|
D-----------------------------------------------------------------------------|
A-1-1-1-1-1-1-1-1-1-1-1-1-1-1-1-1-3-1-----------------------------------------|
C------------------------------------7-8-8-8-8-8-8-8-8-10-10-10-10-10-10-10-10|

(Bridge)(4X) this part is fast so use alternating picking to keep up
G|---------------------------------------------|
D|---------------------------------------------|
A|---------------------------------------------|
C|-5-5-5-5-5-0-3-0-0-0-0-0-0-0-0-0-8-0-0-0-0-8-|This is the ending when you play
It the fourth time

G----------------------------------------------|--------------|
D----------------------------------------------|--------------|
A----------------------------------------------|--------------|
C-5-5-5-5-5-0-3-0-0-0-0-0-0-0-0-0-8-0-0-0-0-0-0|0-0-0-0-0-0-0-|

(Chorus)2X  the other guitars pick-slide before this chorus but, you can if you want to.
G|-----------------------------------------------------------------|
D|-----------------------------------------------------------------|
A|-----------------------------------------------------------------|
C|-8-8-8-8-8-8-8-8-8-8-8-8-8-8-8-8-0-0-0-0-0-0-0-0-0-0-0-0-0-0-0-0-|

G-----------------------------------------------------------------------------|
D-----------------------------------------------------------------------------|
A-1-1-1-1-1-1-1-1-1-1-1-1-1-1-1-1-3-1-----------------------------------------|
C------------------------------------7-8-8-8-8-8-8-8-8-10-10-10-10-10-10-10-10|

Ending
G|-------------------|
D|-------------------|
A|-------------------|
C|-0-0-0-0-0-0-0-0-0-|
Comments