Killswitch Engage - Temple From The Within Chords & Tabs

 

Temple From The Within Chords & Tabs

Killswitch Engage Chords & Tabs

Version: 1 Type: Tab 0 ratings
1 star 2 stars 3 stars 4 stars 5 stars
comments

Temple From The Within Tab

   
Band:  Killswitch Engage
Album: Alive Or Just Breathing
Song:  Temple From The Within

Transcribed By: Sean Coleman
Email:         rocknguitarist@yahoo.com


.  - palm mute           /  - slide up to
\  - slide down to       ~  - vibrato
h  - hammer on           b  - Bend
p  - pull off            Suffixes for bend
t  - tap                 f  - full bend    h - half bend
ph - pinched harmonic    q  - quarter bend t - tap bend
*  - see comment         ^  - Hold bend    r release bend
x  - Stuccatto           ~  - vibrato bend
,  - slight palm mute    () - ghost note, sustained note
"  - tremolo note         - Trill

Guitarists=Joel Stroetzl, Adam Dutkiewicz
Tuning: D Standard, low to high, D,G,C,F,A,D

Riff #1
|-------------------------------------------------------------------|
|-------------------------------------------------------------------|
|-------------------------------------------------------------------|
|---9/10\9--------------9---7-9/10\9--------------9---7-------------|
|---7/8 \7-----------10-7-7-5-7/8 \7-----------10-7-7-5-4-5---------|
|---------0-0-0-0-0-0-8---5---------0-0-0-0-0-0-8---5---2-3---------|
          . . . . . .               . . . . . .


Riff #2 (0:26) Let all chords/notes ring
|-----0-----------|
|------0----------|
|-------0---------|
|------------5----|
|-3-------2--3----|
|-1-------0-------|

Then Riff #1 Again
[ Tab from: http://www.guitartabs.cc/tabs/k/killswitch_engage/temple_from_the_within_tab.html ]
Riff #3
|-------------------------------------------------------------------|
|-121212-10-7-7/8-8-8--121212-10-7-7/8-8-8--101010-8-7-7/8-8-7-7----|
|-------------------------------------------------------------------|
|-9-9-9---7-4-4/5-5-5--9-9-9---7-4-4/5-5-5---7-7-7-5-4-4/5-5-4-4----|
|-------------------------------------------------------------------|
|-------------------------------------------------------------------|

Con't.
|------------------------|
|--5-5-5--5-5-5--5-5-5---|
|------------------------|
|--2-2-2--2-2-2--2-2-2---|
|------------------------|
|------------------------|
I'm really not sure if there's another guitar part under this,
I suspect there is, but I can't figure it out.
Fill
|-------------------------------------------------------|
|-------------------------------------------------------|
|-------------------------------------------------------|
|-------------------------------------------------------|
|--2-(let ring, fade out, then back in)--X\\\\\--2-2-2--|
|--0-------------------------------------X\\\\\--0-0-0--|
 						 . . .
Riff#4
|--------------------------------------------|
|--------------------------------------------|
|-------------------------------------ph2fb~-|
|--------------------------------------------|
|--5/6\5-2-2-2-3-2-2-2-5/6\5-2-2-2-3-2-2-2---|
|--3/4\3-0-0-0-1-0-0-0-3/4\3-0-0-0-1-0-0-0---|
         . . .  . . .

Repeat Riff#4 once more, but don't do the pinch harmonic
the last time.

Then play Riff#3

Riff#5
|------------------------------|
|-555-----555------------------|
|------------------------------|
|-222-----222------------------|
|-----2-2-----2-2-2-2-2-2------|
|-----0-0-----0-0-0-0-0-0------|
      . .     . . . . . .

Then Riff#2

Fill
|----------|
|----------|
|----------|
|----------|
|--\\\\\\--|
|--\\\\\\--|

Riff#6 (Outro, same as Riff#5, but its only the bottom part)
|------------------------------|
|------------------------------|
|------------------------------|
|------------------------------|
|--2-2---2-2-2-2-2-2-----------|
|--0-0---0-0-0-0-0-0-----------|
   . .   . . . . . .
Repeat many times and fade out.
The End
Comments