Killswitch Engage - Temple From The Within Chords & Tabs

 

Temple From The Within Chords & Tabs

Killswitch Engage Chords & Tabs

Version: 1 Type: Bass Tab 0 ratings
1 star 2 stars 3 stars 4 stars 5 stars
comments

Temple From The Within Bass Tab

   
Band- Killswitch Engage
Song- Temple From The Within

Tuning: D,A,D,G

Verse

G:--------------------------------------------------------------------]
D:--------------------------------------------------------------------]
A:--787-----------------7-----5----787-----------------7-----5--------]
D:-------000000---8-0---0-5-----------000000---8-0---0-5---0-2---03---]

Chorus 1

G:---------------------------]
D:---------------------------]
A:----------------------(3)--]
D:--(1)--------(0)-----------]

Then pick up speed
[ Tab from: http://www.guitartabs.cc/tabs/k/killswitch_engage/temple_from_the_within_btab.html ]
G:-----------------------------------]
D:-----------------------------------]
A:------------------------3---3-3-3--]
D:--1-11---1-11---0-0----------------]

Chorus 2

G:-------------------------------]
D:--9-9-9---7----5---4p5-555555--]
A:-------------------------------]
D:-------------------------------]

G--------------------------------------------]
D:--7-7-7---5-4---(5)----(4)----2----2----2--]
A:-------------------------------------------]
D:-------------------------------------------]

Interlude

G:---------------------------------------------------------------]
D:---------------------------------------------------------------]
A:---------------------------------------------------------------]
D:--0---0-0---3b---0---0-0---1---0-0---0---0---3b---0---0-0---1--]
Outro

G:-------------]
D:-------------]
A:-------------]
D:--00000000--]
Comments