Killswitch Engage - Take This Oath Chords & Tabs

 

Take This Oath Chords & Tabs

Killswitch Engage Chords & Tabs

Version: 1 Type: Bass Tab 0 ratings
1 star 2 stars 3 stars 4 stars 5 stars
comments

Take This Oath Bass Tab

   
Band- Killswitch Engage
Song- Take This Oath

C,G,C,F

Intro (x2)
|--------------------------------------------------------------------------|
|--------------------------------------------------------------------------|
|--------------------------------------------------------------------------|
|-6-5-0-3--6-5-0-3-5-0-8-0--6-5-0-3-5-0-8-0--0-0-0-------------------------|

(x2)
|--------------------------------------------------------------------------|
|--------------------------------------------------------------------------|
|--------------------------------------------------------------------------|
|-6/5-0-3--6/5-0-3-5-0-8-0-0-0-6/5-0-3-5-0-8-0--0-0-0----------------------|

(x2)
|--------------------------------------------------------------------------|
|--------------------------------------------------------------------------|
|--------------------------------------------------------------------------|
|-6-5-0-3-0-6-5-0-3-5-0-8-0-0-0-6-5-0-3-5-0-8-0--0-0-0---------------------|

(x2)
|--------------------------------------------------------------------------|
|--------------------------------------------------------------------------|
|--------------------------------------------------------------------------|
|-5-------------------------------6---------------3------------------------|

|--------------------------------------------------------------------------
|--------------------------------------------------------------------------
|-3-----5-----6---3-----5----6----------5-----6---------5-----6------------
|---5-5---5-5---5---5-5---5-5---5-6-6-6--6-6----6-3-3-3---3-3---3----------

--------------------------------------------------------------------------|
--------------------------------------------------------------------------|
-3-----5-----6---3-----5----6----------5-----6---\10-8-7-5-8-7-5-5--------|
---5-5---5-5---5---5-5---5-5---5-6-6-6--6-6----6--------------------------|

(x4)
|--------------------------------------------------------------------------|
|--------------------------------------------------------------------------|
|---------------3--0--0--0--0-5-6-5-0-5-7----------------------------------|
|--6------3-------------------------------6--------------------------------|

(x2)
|--------------------------------------------------------------------------|
|--------------------------------------------------------------------------|
|--------------------------------------------------------------------------|
|-5-5-5-5-5-5--5-5-5-5-5-5-5-5----6-6-6-6-6-6-6---3-3-3-3-3-3-3------------|
[ Tab from: http://www.guitartabs.cc/tabs/k/killswitch_engage/take_this_oath_btab.html ]
(x4)
|--------------------------------------------------------------------------|
|--------------------------------------------------------------------------|
|---------------3--0--0--0--0-5-6-5-0-5-7----------------------------------|
|--6------3-------------------------------6--------------------------------|

|--------------------------------------------------------------------------|
|--------------------------------------------------------------------------|
|--------------------------------------------------------------------------|
|-0-------------------------------------0----------------------------------|

|---------------------------------------------------------------------------
|--3p0---0-----3p0----0-----3p0---0-----3p0----0------2p0---------2p0-------
|------0---0-0------0---0-0-----0---0-0------0---0-0------0-3-0-0----0-3-0-0
|---------------------------------------------------------------------------

---------------------------------------------------------------------------|
2p0---------2p0---------5p0---0-----5p0---0-----5p0---0-----5p0---0--------|
----0-3-0-0-----0-3-0-0-----1---1-1-----1---1-1-----1---1-1-----1---1-1----|
---------------------------------------------------------------------------|

|--------------------------------------------------------------------------|
|--------------------------------------------------------------------------|
|--------------------------------------------------------------------------|
|-0------------------------------------------------------------------------|

(x2)
|--------------------------------------------------------------------------|
|--------------------------------------------------------------------------|
|--------------------------------------------------------------------------|
|-0-0-0-0-0-0-0--0--0------------------------0-0-0-0-0-0-0--0--0-----------|

|--------------------------------------------------------------------------|
|--3p0---0-----3p0----0-----3p0---0-----3p0----0---------------------------|
|------0---0-0------0---0-0-----0---0-0------0---0-0-----------------------|
|--------------------------------------------------------------------------|

(x2)
|--------------------------------------------------------------------------|
|--------------------------------------------------------------------------|
|--------------------------------------------------------------------------|
|-6/5-0-3--6/5-0-3-5-0-8-0-0-0-6/5-0-3-5-0-8-0--0-0-0----------------------|

(x2)
|--------------------------------------------------------------------------|
|--------------------------------------------------------------------------|
|--------------------------------------------------------------------------|
|-6-5-0-3-0-6-5-0-3-5-0-8-0-0-0-6-5-0-3-5-0-8-0--0-0-0---------------------|
Comments