Killswitch Engage - Self Revolution Chords & Tabs

 

Self Revolution Chords & Tabs

Killswitch Engage Chords & Tabs

Version: 2 Type: Tab 0 ratings
1 star 2 stars 3 stars 4 stars 5 stars
comments

Self Revolution Tab

Song: Self-Revolution
Killswitch Engage
Original Tabber : Fuzzy | Edited by : Teh Edster! \m/
I edited some stuff from his tab! Enjoy!

PM - Palm mute
h - Hammer on
p - Pull off
/ - Slide up
\ - Slide down
///X - Scratch string with pick
Triplets - Play the notes really fast

Drop C Tuning


Intro                               
|---------------------------------------|--------------------|
|---------------------------------------|--------------------|
|---------------------------------------|--------------------| 
|---------------------------------------|----------7h8p7-----|
|-0--0-------------------------0--0--00-|------7-8-------8-7-|
|-0--0---0-0-0-000-8-0-5-0-7---0--0--00-|-8-10---------------|

 Verse                               
|-----------------------------------------------------|--------------------|
|-----------------------------------------------------|--------------------|
|-----------------------------------------------------|--------------------| 
|-----------------------------------------------------|----------7h8p7-----|
|-5h8p5--5h8p5-----------------------5h8p5--5h8p5--00-|------7-8-------8-7-|
|-0------0-----0-0-0-000-8-0-5-0-7---0------0------00-|-8-10---------------|




Bridge
|-------------------------------------------------------------|
|-------5/6-6-6-6-6-6/10--10-10--6-6-6-6-6-6-5/6-6-6-6-6-6----|
|-------4/5-5-5-5-5-5/-9---9--9--5-5-5-5-5-5-4/5-5-5-5-5-5----| x2
|-------2/3-3-3-3-3-3/-7---7--7--3-3-3-3-3-3-2/3-3-3-3-3-3----|
|-------2/3-3-3-3-3-3/-7---7--7--3-3-3-3-3-3-2/3-3-3-3-3-3----|
|-///X--------------------------------------------------------|


Verse
|---------------------------------------------------------------|
|---------------------------------------------------------------|
|---------------------------------------------------------------| x1
|-0-2-3-0-3-2-0--2--0-2-3-0-3-2-0--3--0-2-3-0-3-2-0--3-2-0------|
|-0-2-3-0-3-2-0-----0-2-3-0-3-2-0-----0-2-3-0-3-2-0--0-0-0------|
|-0-2-3-0-3-2-0-----0-2-3-0-3-2-0-----0-2-3-0-3-2-0---------(3)-|
PM- - - - - - -     - - - - - - -     - - - - - - -


|------------------------------------------------------------|
|------------------------------------------------------------|
|------------------------------------------------------------| x1
|-0-2-3-0-3-2-0--2--0-2-3-0-3-2-0--3--0-2-3-0-3-2-0--3-2-0-0-|
|-0-2-3-0-3-2-0-----0-2-3-0-3-2-0-----0-2-3-0-3-2-0--1-0-0-0-|
|-0-2-3-0-3-2-0-----0-2-3-0-3-2-0-----0-2-3-0-3-2-0----------|
PM- - - - - - -     - - - - - - -     - - - - - - -


Verse
|---------------------------------------------------------------|
|---------------------------------------------------------------|
|---------------------------------------------------------------| x1
|-0-2-3-0-3-2-0--2--0-2-3-0-3-2-0--3--0-2-3-0-3-2-0--3-2-0------|
|-0-2-3-0-3-2-0-----0-2-3-0-3-2-0-----0-2-3-0-3-2-0--0-0-0------|
|-0-2-3-0-3-2-0-----0-2-3-0-3-2-0-----0-2-3-0-3-2-0---------(3)-|
PM- - - - - - -     - - - - - - -     - - - - - - -


|------------------------------------------------------------|
|------------------------------------------------------------|
|------------------------------------------------------------| x1
|-0-2-3-0-3-2-0--2--0-2-3-0-3-2-0--3--0-2-3-0-3-2-0--3-2-0-0-|
|-0-2-3-0-3-2-0-----0-2-3-0-3-2-0-----0-2-3-0-3-2-0--1-0-0-0-|
|-0-2-3-0-3-2-0-----0-2-3-0-3-2-0-----0-2-3-0-3-2-0----------|
PM- - - - - - -     - - - - - - -     - - - - - - -


|----------------------------------------------------------|
|----------------------------------------------------------|
|-5/7-5/7----------------------5/7-5/7---------------------| x2
|-5/7-5/7--0-0-0-0-------------5/7-5/7------------7h8p7----|
|-3/5-3/5--0-0-0-0-------------3/5-3/5--------7-8-------8-7|
|----------0-0-0-0--8-0-5-0-7------------8-10--------------|
PM         - - - -



Verse
|--------------------------------------------------------------|
|--------------------------------------------------------------|
|--------------------------------------------------------------| x1
|-0-2-3-0-3-2-0--2--0-2-3-0-3-2-0--3--0-2-3-0-3-2-0--3-2-0-----|
|-0-2-3-0-3-2-0-----0-2-3-0-3-2-0-----0-2-3-0-3-2-0--0-0-0-----|
|-0-2-3-0-3-2-0-----0-2-3-0-3-2-0-----0-2-3-0-3-2-0--------(3)-|
PM- - - - - - -     - - - - - - -     - - - - - - -


|------------------------------------------------------------|
|------------------------------------------------------------|
|------------------------------------------------------------| x1
|-0-2-3-0-3-2-0--2--0-2-3-0-3-2-0--3--0-2-3-0-3-2-0--3-2-0-0-|
|-0-2-3-0-3-2-0-----0-2-3-0-3-2-0-----0-2-3-0-3-2-0--1-0-0-0-|
|-0-2-3-0-3-2-0-----0-2-3-0-3-2-0-----0-2-3-0-3-2-0----------|
PM- - - - - - -     - - - - - - -     - - - - - - -

[ Tab from: http://www.guitartabs.cc/tabs/k/killswitch_engage/self_revolution_tab_ver_2.html ]
Verse
|---------------------------------------------------------------|
|---------------------------------------------------------------|
|---------------------------------------------------------------| x1
|-0-2-3-0-3-2-0--2--0-2-3-0-3-2-0--3--0-2-3-0-3-2-0--3-2-0------|
|-0-2-3-0-3-2-0-----0-2-3-0-3-2-0-----0-2-3-0-3-2-0--0-0-0------|
|-0-2-3-0-3-2-0-----0-2-3-0-3-2-0-----0-2-3-0-3-2-0---------(3)-|
PM- - - - - - -     - - - - - - -     - - - - - - -


|-------------------------------------------------------------------------|
|-------------------------------------------------------------------------|
|-------------------------------------------------------------------------| 
|-0-2-3-0-3-2-0--2--0-2-3-0-3-2-0--3--0-2-3-0-3-2-0-------------7h8p7-----|
|-0-2-3-0-3-2-0-----0-2-3-0-3-2-0-----0-2-3-0-3-2-0---------7-8-------8-7-|
|-0-2-3-0-3-2-0-----0-2-3-0-3-2-0-----0-2-3-0-3-2-0----8-10---------------|
PM- - - - - - -     - - - - - - -     - - - - - - -


Chorus
|---------------------------------|
|---------------------------------|
|---------------------------------| x1
|-5-5-5-5-8-8-8-8-3-3-3-3-0-0-0-0-|
|-5-5-5-5-8-8-8-8-3-3-3-3-0-0-0-0-|
|-5-5-5-5-8-8-8-8-3-3-3-3-0-0-0-0-|


|---------------------------------|
|---------------------------------|
|---------------------------------| x1
|-5-5-5-5-8-8-8-8-3-3-3-3-0-0-0-0-|
|-5-5-5-5-8-8-8-8-3-3-3-3-0-0-0-0-|
|-5-5-5-5-8-8-8-8-3-3-3-3-0-0-0-0-|



Play Very Fast
|------------------------------------------------------------------|
|------------------------------------------------------------------|
|------------------------------------------------------------------| x1
|-0-0-0--0-0-0--0-0-0--0-0-0--0-0-0--0-0-0--0-0-0--0-0-0--0-0-0--0-|
|-0-0-0--0-0-0--0-0-0--0-0-0--0-0-0--0-0-0--0-0-0--0-0-0--0-0-0--0-|
|-0-0-0--0-0-0--0-0-0--0-0-0--0-0-0--0-0-0--0-0-0--0-0-0--0-0-0--0-|
PM- - -  - - -  - - -  - - -  - - -  - - -  - - -  - - -  - - -  -


Play Vert Fast (x4)
|--------------------------------------------------------------------------|
|--------------------------------------------------------------------------|
|--------------------------------------------------------------------------| 
|-0-0-0--0-0-0--0-0-0--0-0-0--0-0-0--0-0-0--0-0-0--0-0-0--0-0-0------------|
|-0-0-0--0-0-0--0-0-0--0-0-0--0-0-0--0-0-0--0-0-0--0-0-0--0-0-0--3p1---1p0-|
|-0-0-0--0-0-0--0-0-0--0-0-0--0-0-0--0-0-0--0-0-0--0-0-0--0-0-0------0-----|
PM- - -  - - -  - - -  - - -  - - -  - - -  - - -  - - -  - - -


Not Exact Strumming Shown! Listen to the song!
|---------------------------------------------------------------------------|
|---------------------------------------------------------------------------|
|---------------------------------------------------------------------------|
|-0-0-0-0-0-0---0-0-0----------------3-3-3-3-3-3-3-3-3-3-3-3----------------|
|-0-0-0-0-0-0---0-0-0-3p1---1p0------3-3-3-3-3-3-3-3-3-3-3-3-3p1---1p0------|
|-0-0-0-0-0-0---0-0-0-----0----0-3h5-3-3-3-3-3-3-3-3-3-3-3-3-----0-----0-3h2|
PM- - - - - -   - - -     -    -     - - - - - - - - - - - -

Chorus
|---------------------------------|
|---------------------------------|
|---------------------------------| x1
|-5-5-5-5-8-8-8-8-3-3-3-3-0-0-0-0-|
|-5-5-5-5-8-8-8-8-3-3-3-3-0-0-0-0-|
|-5-5-5-5-8-8-8-8-3-3-3-3-0-0-0-0-|

|---------------------------------|
|---------------------------------|
|---------------------------------| x1
|-5-5-5-5-8-8-8-8-3-3-3-3-0-0-0-0-|
|-5-5-5-5-8-8-8-8-3-3-3-3-0-0-0-0-|
|-5-5-5-5-8-8-8-8-3-3-3-3-0-0-0-0-|

|----------------------------------------------------------|
|----------------------------------------------------------|
|-5/7-5/7----------------------5/7-5/7---------------------| x2
|-5/7-5/7--0-0-0-0-------------5/7-5/7------------7h8p7----|
|-3/5-3/5--0-0-0-0-------------3/5-3/5--------7-8-------8-7|
|----------0-0-0-0--8-0-5-0-7------------8-10--------------|
PM         - - - -

Interlude                                             
|-------------------------------------------------------|-------------------|
|-------------------------------------------------------|-------------------|
|-------------------------------------------------------|-------------------|
|-------------------------------------------------------|----------7h8p7----|
|-5h8p5--5h8p5-------------------------5h8p5--5h8p5--00-|------7-8-------8-7|
|-0------0-------0-0-0-000-8-0-5-0-7---0------0------00-|-8-10--------------|

Guitar 2 Plays This While Guitar 1 Plays ^
|----------------------------------|
|----------------------------------|
|----------------------------------|
|-0-0-0-0-0-0-0-0--0-0-0-0-0-0---0-|
|-0-0-0-0-0-0-0-0--0-0-0-0-0-0---0-|
|-0-0-0-0-0-0-0-0--0-0-0-0-0-0---0-|
PM- - - - - - - -  - - - - - -

|--------|
|--------|
|--------| x1
|-7-7-7\-|
|-5-5-5\-|
|--------|

Question? Comments? Complaints?
I3irthDefect@aol.com!
Comments