Killswitch Engage - Self Revolution Chords & Tabs

 

Self Revolution Chords & Tabs

Killswitch Engage Chords & Tabs

Version: 1 Type: Bass Tab 0 ratings
1 star 2 stars 3 stars 4 stars 5 stars
comments

Self Revolution Bass Tab

   
Band- Killswitch Engage
Song- Self Revolution

Tuning C (C,G,C,F)



INTRO
F|---------------------------------------------------|
C|---------------------------------------------------|
G|------------1-1-1-3-3-3-3--------------------------|
C|-0-0--0-0------------------0-0--0-0-0--------------|

F|---------------------------------------------------------|
C|---------------------------------------------------------|
G|------------------------------------------1---1-3-3-3-3--|
C|-0-000-000000000000000-8-0-5-0-7-000000000--3------------|
 4x


F|---------------------------------------------------------------------------|
C|-------------------------------7--7-7--------------------------------------|
G|-------------------3-3-55555555-55---------------------3-5-3-5-3-5-3-5-3-5-|
C|-5555-77-88-333333--------------------5555-77-88-333333--------------------|
 


F|---------------------------------------------------|
C|---------------------------------------------------|
G|-------------------------------------------1-0-----|
C|-0-3-2-0-2h3-0-2-3-2-0-2h3-0-2-3-2-0-2h3-0-----3-5-|
 4x


F|--------------------------------------------------|
C|--------------------------------------------------|
G|-3h5-3h5-------------------3h5-3h5----1-1-3-3-3-3-|
C|----0----0000-8-00-5-0-7-0----0---0-0--3----------|
 2x


F|---------------------------------------------------|
C|---------------------------------------------------|
G|-------------------------------------------1-0-----|
C|-0-3-2-0-2h3-0-2-3-2-0-2h3-0-2-3-2-0-2h3-0-----3-5-|
 3x
[ Tab from: http://www.guitartabs.cc/tabs/k/killswitch_engage/self_revolution_btab.html ]
Quickly....
F|------------------------------------------------|
C|------------------------------------------------|
G|------------------------------------------------|
C|-0-3-2-0-2h3-0-2-3-2-0-2h3-0-2-3-2-0-2h3-0------|



F|-----------------------------------------------|
C|-----------------------------------------------|
G|-----------------------------------------------|
C|-5-5-5-5-5-7-8-8-8-8-8-0-3-3-3-3-3-3-0-0-0-----|
 2x



F|-------|
C|-------|
G|-------|
C|000----|
 9x 

F|-----------------------------------------------|
C|-----------------------------------------------|
G|-------------------------------------3----1----|
C|-000-000-000-000-000-000-000-000-000--5-0--3---|
 4x



F|------------------------------------------------------------------|
C|------------------------------------------------------------------|
G|---------------------3----1---0---------------------3----1---0----|
C|-000-000-000-000-000--5-0--3-0--333-333-333-333-333--5-0--3-0-----|
 2x

F|-----------------------------------------------|
C|-----------------------------------------------|
G|-----------------------------------------------|
C|-5-5-5-5-5-7-8-8-8-8-8-0-3-3-3-3-3-3-0-0-0-----|
 2x


F|--------------------------------------------------|
C|--------------------------------------------------|
G|-3h5-3h5-------------------3h5-3h5----1-1-3-3-3-3-|
C|----0----0000-8-00-5-0-7-0----0---0-0--3----------|
 2x

Then quickly....
F|-------------------------------------------------------|
C|-------------------------------------------------------|
G|-3h5-3h5------------------------3h5-3h5----1-1-3-3-3-3-|
C|----0----0000000-8-0000-5-0-7-0----0---000--3----------|
 
OUTRO
F|-----------------------------------------------------------|
C|-----------------------------------------------------------|
G|-3h5-3h5------------------------3h5-3h5----1-1-3-3-3-3/5\1-|
C|----0----0000000-8-0000-5-0-7-0----0---000--3--------------|
Comments