Killswitch Engage - Rose Of Sharyn Chords & Tabs

 

Rose Of Sharyn Chords & Tabs

Killswitch Engage Chords & Tabs

Version: 7 Type: Tab

Rose Of Sharyn Tab

*  - palm mute           /  - slide up to
\  - slide down to       ~  - vibrato
h  - hammer on           b  - Bend
p  - pull off            Suffixes for bend
t  - tap                 f  - full bend    h - half bend
ph - pinched harmonic    q  - quarter bend t - tap bend
(.)- see comment         ^  - Hold bend    r release bend
x  - Stuccatto           ~  - vibrato bend
,  - slight palm mute    () - ghost note, sustained note
"  - tremolo note        <> - Trill
NH - Natural Harminic    x> - pick slide

Tuning (DROP D)-- D A D G B E
[ Tab from: http://www.guitartabs.cc/tabs/k/killswitch_engage/rose_of_sharyn_tab_ver_7.html ]
  Both Guitars
D|----------------------------------------------------------------|
A|----------------------------------------------------------------|
F|----------------------------------------------------------------|
C|-------------8---7--------------------8-7h8p7p0-----------------|
G|-----0-------6---5------1---0------0------------0-7h8p7p0-8-10--|
C|--12/0-00000---0---0000-1-0-0-0000-0----------------------8-10--|
         *****   *   ****   *   ****
 Both Guitars
|-------------------------------------------------------------|
|-------------------------------------------------------------|
|-------------------------------------------------------------|
|----------8---7--------------------8-7h8p7p0-----------------|
|--0-------6---5------1---0------0------------0-7h8p7p0-8-10--|
|--0-00000---0---0000-1-0-0-0000-0----------------------8-10--|
     *****   *   ****   *   ****
 Guitar 1
|-------------------------------------------------------------|
|-------------------------------------------------------------|
|-------------------------------------------------------------|
|----------8---7--------------------8-7h8p7p0-----------------|
|--0-------6---5------1---0------0------------0-7h8p7p0-8-10--|
|--0-00000---0---0000-1-0-0-0000-0----------------------8-10--|
|    *****   *   ****   *   ****
|Guitar 2
|------------------------------------------------------------|
|------------------------------------------------------------|
|----------12--10------8---7--------7-5h7p5p0----------------|
|---------------------------------------------0-5h7p5p0------|
|--0-------10---8------6---5------0---------------------5-7--|
|--0-00000----0---0000---0---0000-0--------------------------|
     *****    *   ****   *   ****
 Guitar 1
|-------------------------------------------------------------|
|-------------------------------------------------------------|
|-------------------------------------------------------------|
|----------8---7--------------------8-7h8p7p0-----------------|
|--0-------6---5------1---0------0------------0-7h8p7p0-8-10--|
|--0-00000---0---0000-1-0-0-0000-0----------------------8-10--|
|    *****   *   ****   *   ****
|Guitar 2
|------------------------------------------------------------|
|------------------------------------------------------------|
|----------12--10------8---7--------7-5h7p5p0----------------|
|---------------------------------------------0-5h7p5p0------|
|--0-------10---8------6---5------0---------------------5-7--|
|--0-00000----0---0000---0---0000-0--------------------------|
     *****    *   ****   *   ****
 Both Guitars
|------------------------------------------------------------------------|
|------------------------------------------------------------------------|
|------------------------------------------------------------------------|
|-------------------------------------------------------------10-----10--|
|---5-7-8-5-7-8-5-7-8-5-7-8-5-7-8-5-7-8-5-7-8-5-7-8-5-7-8--7-8----7-8----|
|--0-0-0-0-0-0-8-8-8-8-8-8-5-5-5-5-5-5-0-0-0-0-0-0-8-8-8-----------------|
   * * * * * * * * * * * * * * * * * * * * * * * * * * *
 Both Guitars
|---------------------------------------------------------------------|
|---------------------------------------------------------------------|
|---------------------------------------------------------------------|
|-------------------------------------------------------------10------|
|---5-7-8-5-7-8-5-7-8-5-7-8-5-7-8-5-7-8-5-7-8-5-7-8-5-7-8--7-8---7-8--|
|--0-0-0-0-0-0-8-8-8-8-8-8-5-5-5-5-5-5-0-0-0-0-0-0-8-8-8--------------|
   * * * * * * * * * * * * * * * * * * * * * * * * * * *
 Both Guitars (.)
|---------------------------------------------------------------------|
|---------------------------------------------------------------------|
|---------------------------------------------------------------------|
|---------------------------------------------------------------------|
|-----1----------------3----------------5----------------8------8--3--|
|--12/1-1111-1111-1111-3-3333-3333-3333-5-5555-5555-5555-8-8888-8--3--|
        **** **** ****   **** **** ****   **** **** ****   ****
 Both Guitars
|-------------------------------------------------------------------|
|-------------------------------------------------------------------|
|-------------------------------------------------------------------|
|-------------------------------------------------------------------|
|--1----------------3----------------5----------------8------8--x>--|
|--1-1111-1111-1111-3-3333-3333-3333-5-5555-5555-5555-8-8888-8--x>--|
     **** **** ****   **** **** ****   **** **** ****   ****
 Both Guitars
|-------------------------------------------------------------|
|-------------------------------------------------------------|
|-------------------------------------------------------------|
|----------8---7--------------------8-7h8p7p0-----------------|
|--0-------6---5------1---0------0------------0-7h8p7p0-8-10--|
|--0-00000---0---0000-1-0-0-0000-0----------------------8-10--|
     *****   *   ****   *   ****
 Both Guitars
|-----------------------------------------------------|
|-----------------------------------------------------|
|----------------------------------------------7ph~~--|
|----------8---7--------------------8-7h8p7p0---------|
|--0-------6---5------1---0------0--------------------|
|--0-00000---0---0000-1-0-0-0000-0--------------------|
     *****   *   ****   *   ****
 Guitar 1
|-------------------------------------------------------------|
|-------------------------------------------------------------|
|-------------------------------------------------------------|
|----------8---7--------------------8-7h8p7p0-----------------|
|--0-------6---5------1---0------0------------0-7h8p7p0-8-10--|
|--0-00000---0---0000-1-0-0-0000-0----------------------8-10--|
|    *****   *   ****   *   ****
|Guitar 2
|------------------------------------------------------------|
|------------------------------------------------------------|
|----------12--10------8---7--------7-5h7p5p0----------------|
|---------------------------------------------0-5h7p5p0------|
|--0-------10---8------6---5------0---------------------5-7--|
|--0-00000----0---0000---0---0000-0--------------------------|
     *****    *   ****   *   ****
 Guitar 1
|-------------------------------------------------------------|
|-------------------------------------------------------------|
|-------------------------------------------------------------|
|----------8---7--------------------8-7h8p7p0-----------------|
|--0-------6---5------1---0------0------------0-7h8p7p0-8-10--|
|--0-00000---0---0000-1-0-0-0000-0----------------------8-10--|
|    *****   *   ****   *   ****
|Guitar 2
|------------------------------------------------------------|
|------------------------------------------------------------|
|----------12--10------8---7--------7-5h7p5p0----------------|
|---------------------------------------------0-5h7p5p0------|
|--0-------10---8------6---5------0---------------------5-7--|
|--0-00000----0---0000---0---0000-0--------------------------|
     *****    *   ****   *   ****
 Guitar 1
|-----------------------------------------------------------------------|
|-----------------------------------------------------------------------|
|-----------------------------------------------------------------------|
|-------------------------------------------------------------10----10--|
|---5-7-8-5-7-8-5-7-8-5-7-8-5-7-8-5-7-8-5-7-8-5-7-8-5-7-8--7-8---7-8----|
|--0-0-0-0-0-0-8-8-8-8-8-8-5-5-5-5-5-5-0-0-0-0-0-0-8-8-8----------------|
|   * * * * * * * * * * * * * * * * * * * * * * * * * * *
|Guitar 2
|---------------------------------------------------------------------|
|---------------------------------------------------------------------|
|-------------------------------------------------------------7----7--|
|---3-5-7-3-5-7-3-5-7-3-5-7-3-5-7-3-5-7-3-5-7-3-5-7-3-5-7--3-5--3-5---|
|---------------------------------------------------------------------|
|--0-0-0-0-0-0-8-8-8-8-8-8-5-5-5-5-5-5-0-0-0-0-0-0-8-8-8--------------|
   * * * * * * * * * * * * * * * * * * * * * * * * * * *
 Guitar 1
|-----------------------------------------------------------------------|
|-----------------------------------------------------------------------|
|-----------------------------------------------------------------------|
|-------------------------------------------------------------10--------|
|---5-7-8-5-7-8-5-7-8-5-7-8-5-7-8-5-7-8-5-7-8-5-7-8-5-7-8--7-8---7-8----|
|--0-0-0-0-0-0-8-8-8-8-8-8-5-5-5-5-5-5-0-0-0-0-0-0-8-8-8----------------|
|   * * * * * * * * * * * * * * * * * * * * * * * * * * *
|Guitar 2
|---------------------------------------------------------------------|
|---------------------------------------------------------------------|
|-------------------------------------------------------------7-------|
|---3-5-7-3-5-7-3-5-7-3-5-7-3-5-7-3-5-7-3-5-7-3-5-7-3-5-7--3-5--3-5---|
|---------------------------------------------------------------------|
|--0-0-0-0-0-0-8-8-8-8-8-8-5-5-5-5-5-5-0-0-0-0-0-0-8-8-8--------------|
   * * * * * * * * * * * * * * * * * * * * * * * * * * *
 Both Guitars
|---------------------------------------------------------------------|
|---------------------------------------------------------------------|
|---------------------------------------------------------------------|
|---------------------------------------------------------------------|
|-----1----------------3----------------5----------------8------8--3--|
|--12/1-1111-1111-1111-3-3333-3333-3333-5-5555-5555-5555-8-8888-8--3--|
        **** **** ****   **** **** ****   **** **** ****   ****
 Both Guitars
|----------------------------------------------------------------------|
|----------------------------------------------------------------------|
|----------------------------------------------------------------------|
|----------------------------------------------------------------------|
|-----1----------------3----------------5----------------8------8--x>--|
|--12/1-1111-1111-1111-3-3333-3333-3333-5-5555-5555-5555-8-8888-8--x>--|
        **** **** ****   **** **** ****   **** **** ****   ****
 Both Guitars
|--------------------------------------------------------------|
|--------------------------------------------------------------|
|------3-2-----------------------------------------------------|
|----------5-3-5-3p0-----5-3-5---------------8---------8-------|
|--1-----------------3---------7-5-5p3--5-5-6-6-5-5-5-6-6-5----|
|--1--1-1-1-1-1-1----3--3-3-3-3-3-3---3-5---------5---------5--|
      * * * * * *       * * * * * *   *
 Both Guitars
|-------------------|
|-------------------|
|-------------------|
|-------8-----------|
|--8-5-6-6-5--8--3--|
|--8----------8--3--|

 Both Guitars
|--------------------------------------------------------------|
|--------------------------------------------------------------|
|------3-2-----------------------------------------------------|
|----------5-3-5-3p0-----5-3-5---------------8---------8-------|
|--1-----------------3---------7-5-5p3--5-5-6-6-5-5-5-6-6-5----|
|--1--1-1-1-1-1-1----3--3-3-3-3-3-3---3-5---------5---------5--|
      * * * * * *       * * * * * *   *
 Both Guitars
|-------------------|
|-------------------|
|-------------------|
|-------8-----------|
|--8-5-6-6-5--8--3--|
|--8----------8--3--|

 Both Guitars (Use Neck Pickup Quietly)
|------------------|
|------------------|
|------------------|
|--1---3---5---8---|
|--1---3---5---8---|
|--1---3---5---8---|

 Both Guitars
|-----------------------|
|-----------------------|
|-----------------------|
|--1---3---5---8-8-8-8--|
|--1---3---5---8-8-8-8--|
|--1---3---5---8-8-8-8--|

 Both Guitars
|--------------------------------------------------------------|
|--------------------------------------------------------------|
|------3-2-----------------------------------------------------|
|----------5-3-5-3p0-----5-3-5---------------8---------8-------|
|--1-----------------3---------7-5-5p3--5-5-6-6-5-5-5-6-6-5----|
|--1--1-1-1-1-1-1----3--3-3-3-3-3-3---3-5---------5---------5--|
      * * * * * *       * * * * * *   *
 Both Guitars
|-------------------|
|-------------------|
|-------------------|
|-------8-----------|
|--8-5-6-6-5--8--3--|
|--8----------8--3--|

 Both Guitars
|--------------------------------------------------------------|
|--------------------------------------------------------------|
|------3-2-----------------------------------------------------|
|----------5-3-5-3p0-----5-3-5---------------8---------8-------|
|--1-----------------3---------7-5-5p3--5-5-6-6-5-5-5-6-6-5----|
|--1--1-1-1-1-1-1----3--3-3-3-3-3-3---3-5---------5---------5--|
      * * * * * *       * * * * * *   *
 Both Guitars
|-------------------|
|-------------------|
|-------------------|
|-------8-----------|
|--8-5-6-6-5--8--3--|
|--8----------8--3--| Play and Fade Out till end...