Killswitch Engage - Rose Of Sharyn Chords & Tabs

 

Rose Of Sharyn Chords & Tabs

Killswitch Engage Chords & Tabs

Version: 6 Type: Tab 0 ratings
1 star 2 stars 3 stars 4 stars 5 stars
comments

Rose Of Sharyn Tab

   
    Title: Rose of Sharyn (guitar 1)
   Artist: Killswitch Engage
    Album: End of Heartache

Tabbed by: AsheZoftheWakE
    Email: Ejp609@yahoo.com

------------ 
Key 
/ slide up
\ slide down
h hammer-on
p pull-off
. Palm Mute 
------------
   
   Tuning: Drop C (C G C F A D)

Intro/Verse (0:01) 
D|------------|
A|------------|
F|------------|
C|------------|
G|--------12\-|
C|--------12\-|

D|----------------------------------------------------------------------|
A|----------------------------------------------------------------------|
F|----------------------------------------------------------------------|x2
C|-0-------------8---7-----------1---0---------------8-7h8p7------------|
G|-0-0-0-0-0-0-0-6-0-5-0-0-0-0-0-1-0-0-0-0-0-0-0-0-0--------7h8p7-8/10--|
C|-0-0-0-0-0-0-0---0---0-0-0-0-0---0---0-0-0-0-0-0-0--------------8/10--|
     . . . . . .   .   . . . . .   .   . . . . . . .         

D|----------------------------------------------------------------------|
A|----------------------------------------------------------------------|
F|----------------------------------------------------------------------|x2
C|-0--------------------------------------------------8-7h8p7-----------|
G|-0-0-0-0-0-0-0-10-0-7-0-0-0-0-0-6-0-5-0-0-0-0-0-0-0--------7h8p7-8/10-|
C|-0-0-0-0-0-0-0----0---0-0-0-0-0---0---0-0-0-0-0-0-0--------------8/10-|
     . . . . . .    .   . . . . .   .   . . . . . . .

Interlude 1 (0:21)
D|----------------------------------------------------------------------|
A|----------------------------------------------------------------------|
F|----------------------------------------------------------------------|
C|--------------------------------------------------------10----10------|
G|--5-7-8--5-7-8--5-7-8--5-7-8--5-7-8--5-7-8--5-7-8----7-8---7-8--------|
C|-0-0-0--0-0-0--7-7-7--0-0-0--0-0-0--7-7-7--5-5-5----------------------|
   . . .  . . .  . . .  . . .  . . .  . . .  . . .     . .   . .

D|----------------------------------------------------------------------|
A|----------------------------------------------------------------------|
F|----------------------------------------------------------------------|
C|--------------------------------------------------------10----7\------|
G|--5-7-8--5-7-8--5-7-8--5-7-8--5-7-8--5-7-8--5-7-8----7-8------7\------|
C|-0-0-0--0-0-0--7-7-7--0-0-0--0-0-0--7-7-7--5-5-5--------------7\------|
   . . .  . . .  . . .  . . .  . . .  . . .  . . .     . .   

Pre-chorus (0:37)   
D|---------------------------------------------------------------------|
A|---------------------------------------------------------------------|
F|---------------------------------------------------------------------|
C|-1---------------3---------------5---------------8---------88---33---|
G|-111111111111111-333333333333333-555555555555555-888888888-88-8-33---|
C|-111111111111111-333333333333333-555555555555555-888888888-88-8-33---|
    ..............  ..............  ..............  ........    .    


D|---------------------------------------------------------------------|
A|---------------------------------------------------------------------|
F|---------------------------------------------------------------------|
C|-1---------------3---------------5---------------8----------------\\-|
G|-111111111111111-333333333333333-555555555555555-888888888--------\\-|
C|-111111111111111-333333333333333-555555555555555-888888888--------\\-|
    ..............  ..............  ..............  ........   
[ Tab from: http://www.guitartabs.cc/tabs/k/killswitch_engage/rose_of_sharyn_tab_ver_6.html ]
Verse (0:58)
D|----------------------------------------------------------------------|
A|----------------------------------------------------------------------|
F|----------------------------------------------------------------------|x2
C|-0-------------8---7-----------1---0---------------8-7h8p7------------|
G|-0-0-0-0-0-0-0-6-0-5-0-0-0-0-0-1-0-0-0-0-0-0-0-0-0--------7h8p7-8/10--|
C|-0-0-0-0-0-0-0---0---0-0-0-0-0---0---0-0-0-0-0-0-0--------------8/10--|
     . . . . . .   .   . . . . .   .   . . . . . . .             ^
                                                                 |
                [Theres a harmonic here somewhere on the second time played]
D|----------------------------------------------------------------------|
A|----------------------------------------------------------------------|
F|----------------------------------------------------------------------|x2
C|-0--------------------------------------------------8-7h8p7-----------|
G|-0-0-0-0-0-0-0-10-0-7-0-0-0-0-0-6-0-5-0-0-0-0-0-0-0--------7h8p7-8/10-|
C|-0-0-0-0-0-0-0----0---0-0-0-0-0---0---0-0-0-0-0-0-0--------------8/10-|
     . . . . . .    .   . . . . .   .   . . . . . . .            

Interlude 1 (1:19)
D|----------------------------------------------------------------------|
A|----------------------------------------------------------------------|
F|----------------------------------------------------------------------|
C|--------------------------------------------------------10----10------|
G|--5-7-8--5-7-8--5-7-8--5-7-8--5-7-8--5-7-8--5-7-8----7-8---7-8--------|
C|-0-0-0--0-0-0--7-7-7--0-0-0--0-0-0--7-7-7--5-5-5----------------------|
   . . .  . . .  . . .  . . .  . . .  . . .  . . .     . .   . .

D|----------------------------------------------------------------------|
A|----------------------------------------------------------------------|
F|----------------------------------------------------------------------|
C|--------------------------------------------------------10----10--7\--|
G|--5-7-8--5-7-8--5-7-8--5-7-8--5-7-8--5-7-8--5-7-8----7-8---7-8----7\--|
C|-0-0-0--0-0-0--7-7-7--0-0-0--0-0-0--7-7-7--5-5-5------------------7\--|
   . . .  . . .  . . .  . . .  . . .  . . .  . . .     . .   . .

Pre-chorus (1:36)
D|---------------------------------------------------------------------|
A|---------------------------------------------------------------------|
F|---------------------------------------------------------------------|
C|-1---------------3---------------5---------------8---------88---33---|
G|-111111111111111-333333333333333-555555555555555-888888888-88-8-33---|
C|-111111111111111-333333333333333-555555555555555-888888888-88-8-33---|
    ..............  ..............  ..............  ........    .    

D|---------------------------------------------------------------------|
A|---------------------------------------------------------------------|
F|---------------------------------------------------------------------|
C|-1---------------3---------------5---------------8-----------7\------|
G|-111111111111111-333333333333333-555555555555555-888888888---7\------|
C|-111111111111111-333333333333333-555555555555555-888888888---7\------|
    ..............  ..............  ..............  ........  

Chorus (1:56)
D|-----------------------------------------------------------------------|
A|-----------------------------------------------------------------------|
F|-----------------------------------------------------------------------|X2
C|-1--8-7-5-3-5--1/3-3--10-8-7-5-7--3/5-5-----8-5-----8-8-----8-8---3----|
G|-1-----------------3------------------5-7-7---5-7-7---8-7-7---8-0-3-00-|
C|-1-0-0-0-0-0-0-----3-0--0-0-0-0-0-----5-------5-------8-------8-0-3-00-|
     . . . . . .       .  . . . . .       . .     . .     . .     .   ..

Interlude 2 (2:18)
D|-----------------------------------------------------------------------|
A|-----------------------------------------------------------------------|
F|-----------------------------------------------------------------------|
C|-1-------3-------5-------8-------1-------3-------5-------8---8---8-----|
G|-1-------3-------5-------8-------1-------3-------5-------8---8---8-----|
C|-1-------3-------5-------8-------1-------3-------5-------8---8---8-----|

Chorus (2:39) [Play until fades out]
D|-----------------------------------------------------------------------|
A|-----------------------------------------------------------------------|
F|-----------------------------------------------------------------------|
C|-1--8-7-5-3-5--1/3-3--10-8-7-5-7--3/5-5-----8-5-----8-8-----8-8---3----|
G|-1-----------------3------------------5-7-7---5-7-7---8-7-7---8-0-3-00-|
C|-1-0-0-0-0-0-0-----3-0--0-0-0-0-0-----5-------5-------8-------8-0-3-00-|
     . . . . . .       .  . . . . .       . .     . .     . .     .   ..
Comments