Killswitch Engage - Rose Of Sharyn Chords & Tabs

 

Rose Of Sharyn Chords & Tabs

Killswitch Engage Chords & Tabs

Version: 5 Type: Tab 0 ratings
1 star 2 stars 3 stars 4 stars 5 stars
comments

Rose Of Sharyn Tab

   
Tuning: C G C F A D


Intro / Bridge1  


e|-----------------------------------------------------|
B|-----------------------------------------------------|
G|-----------------------------------------------------|
D|------0-0-0-0-0-0-0-8-7--0-0-0-0-0-0-0-1-0-----------|
A|------0-0-0-0-0-0-0-6-5--0-0-0-0-0-0-0-1-0-----------|
E|-12\--0-0-0-0-0-0-0------0-0-0-0-0-0-0---------------|
          x x x x x x        x x x x x x                   x2
 
e|--------------------------------------------------------|
B|--------------------------------------------------------|
G|--------------------------------------------------------|
D|-0-0-0-0-0-0-0-8-7p8p7-------8-10-----------------------| 
A|-0-0-0-0-0-0-0---------7p8p7-8-10---------------------- |
E|-0-0-0-0-0-0-0---------------8-10-----------------------|
   x x x x x x x

e|-----------------------------------------------------|
B|-----------------------------------------------------|
G|-----------------------------------------------------|
D|------0-0-0-0-0-0-0------0-0-0-0-0-0-0---------------|
A|------0-0-0-0-0-0-0-10-7-0-0-0-0-0-0-0-6-5-----------|
E|-12---0-0-0-0-0-0-0---0--0-0-0-0-0-0-0--0------------|
          x x x x x x   x    x x x x x x  x                 x2
e|--------------------------------------------------------|
B|--------------------------------------------------------|
G|--------------------------------------------------------|
D|-0-0-0-0-0-0-0-8-7p8p7-------8-10-----------------------|
A|-0-0-0-0-0-0-0---------7p8p7-8-10---------------------- |
E|-0-0-0-0-0-0-0---------------8-10-----------------------|
   x x x x x x x
Bridge2  (2x)

e|-------------------------------------------------|
B|-------------------------------------------------|
G|-------------------------------------------------|
D|-------------------------------------------------|
A|---5---7---8----5---7---8----5---7---8-----------|
E|-0---0---0----0---0---0----7---7---7-------------|
   x   x   x    x   x   x    x   x   x                   x2

e|------------------------------------------------------------------------|
B|------------------------------------------------------------------------|
G|------------------------------------------------------------------------|
D|------------------------------------------------------------10------10--|
A|---5---7---8----5---7---8----5---7---8----5---7---8-----7-8-----7-8-----|
E|-5---5---5----0---0---0----0---0---0----7---7---7-----------------------|
   x   x   x    x   x   x    x   x   x    x   x   x       x x     x x


Chorus  (2x)

e|-----------------------------------------------------------|
B|-----------------------------------------------------------|  
G|-----------------------------------------------------------|    
D|-1--1-1-1-1-1-1--10-10-101010-3--3-3-3-3-3-3--10-10-101010-|    
A|-1--1-1-1-1-1-1--8--8--8-8-8--3--3-3-3-3-3-3--8--8--8-8-8--|
E|-1--1-1-1-1-1-1---------------3--3-3-3-3-3-3---------------|
      x x x x x x                  x x x x x x          
                                                                x2
e|-----------------------------------------------------------|
B|-----------------------------------------------------------|
G|-----------------------------------------------------------|
D|---5-5-5-5-5-5-5--10-10-101010-8--8-8-8-8-8-8-8-0-3-00-1---|
A|---5-5-5-5-5-5-5--8--8--8-8-8--8--8-8-8-8-8-8-8-0-3-00-1---|
E|---5-5-5-5-5-5-5---------------8--8-8-8-8-8-8-8-0-3-00-1---|
       x x x x x x                  x x x x x x       xx
                
                on second time end right hear ^ with a pick slide
  Bridge1 
e|-----------------------------------------------------|
B|-----------------------------------------------------|
G|-----------------------------------------------------|
D|------0-0-0-0-0-0-0-8-7--0-0-0-0-0-0-0-1-0-----------|
A|------0-0-0-0-0-0-0-6-5--0-0-0-0-0-0-0-1-0-----------|
E|-12---0-0-0-0-0-0-0------0-0-0-0-0-0-0---------------|
          x x x x x x        x x x x x x                   x2
 
e|--------------------------------------------------------|
B|--------------------------------------------------------|
G|--------------------------------------------------------|
D|-0-0-0-0-0-0-0-8-7p8p7-------8-10-----------------------| 
A|-0-0-0-0-0-0-0---------7p8p7-8-10---------------------- |
E|-0-0-0-0-0-0-0---------------8-10-----------------------|
   x x x x x x x
[ Tab from: http://www.guitartabs.cc/tabs/k/killswitch_engage/rose_of_sharyn_tab_ver_5.html ]
e|-----------------------------------------------------|
B|-----------------------------------------------------|
G|-----------------------------------------------------|
D|------0-0-0-0-0-0-0------0-0-0-0-0-0-0---------------|
A|------0-0-0-0-0-0-0-10-7-0-0-0-0-0-0-0-6-5-----------|
E|-12---0-0-0-0-0-0-0---0--0-0-0-0-0-0-0--0------------|
          x x x x x x   x    x x x x x x  x                 x2
e|--------------------------------------------------------|
B|--------------------------------------------------------|
G|--------------------------------------------------------|
D|-0-0-0-0-0-0-0-8-7p8p7-------8-10-----------------------|
A|-0-0-0-0-0-0-0---------7p8p7-8-10---------------------- |
E|-0-0-0-0-0-0-0---------------8-10-----------------------|
   x x x x x x x

Bridge2  (2x)

e|----------------------------------------------------|
B|----------------------------------------------------|
G|----------------------------------------------------|
D|-------5---7--------5---7--------5---7--------5---7-|
A|---8------------8------------8------------8---------|
E|-0---0---0----0---0---0----8---8---8----5---5---5---|
   x   x   x    x   x   x    x   x   x    x   x   x

e|-------------------------------------------------------------|
B|-------------------------------------------------------------|
G|----------------------------------------------9-------9------|
D|-------5---7--------5---7--------5---7----5-7-----5-7--------|
A|---8------------8------------8-------------------------------|
E|-0---0---0----0---0---0----8---8---8--------------------////-|
   x   x   x    x   x   x    x   x   x      x  x    x x    

Chorus  (2x)

e|-----------------------------------------------------------|
B|-----------------------------------------------------------|  
G|-----------------------------------------------------------|    
D|-1--1-1-1-1-1-1--10-10-101010-3--3-3-3-3-3-3--10-10-101010-|    
A|-1--1-1-1-1-1-1--8--8--8-8-8--3--3-3-3-3-3-3--8--8--8-8-8--|
E|-1--1-1-1-1-1-1---------------3--3-3-3-3-3-3---------------|
      x x x x x x                  x x x x x x          
       
e|-----------------------------------------------------------|
B|-----------------------------------------------------------|
G|-----------------------------------------------------------|
D|---5-5-5-5-5-5-5--10-10-101010-8--8-8-8-8-8-8-8-0-3-00-1---|
A|---5-5-5-5-5-5-5--8--8--8-8-8--8--8-8-8-8-8-8-8-0-3-00-1---|
E|---5-5-5-5-5-5-5---------------8--8-8-8-8-8-8-8-0-3-00-1---|
       x x x x x x                  x x x x x x       xx
                
                on second time end right hear ^ with a pick slide
Chorus 2 (2x)
e|----------------------------------------------------|
B|----------------------------------------------------|
G|----------------------------------------------------|
D|--1---8--7--5--3--5--1/3--3---10-8--7--5--7--3/5----|
A|--1-----------------------3-------------------------|
E|--1-0--0--0--0--0---------3-0---0--0--0-------------
      x  x  x  x  x           x   x  x  x 
 
e|------------------------------------------|
B|------------------------------------------|
G|------------------------------------------|
D|---------8--------8--------8--8-0-3-00----|
A|--5--7-7---5--7-7---8--7-7----8-0-3-00----|
E|--5--------5--------8---------8-0-3-00----|
       x x      x x      x x      x   xx
  
Slow part
e|---------------------------------------|--------|
B|---------------------------------------|--------| x2 second time pic slide
G|---------------------------------------|--------|
D|--1---3---5---8-----1---3---5---8-8-8--|--------|
A|--1---3---5---8-----1---3---5---8-8-8--|---////-|
E|--1---3---5---8-----1---3---5---8-8-8--|---////-|


Then chorus 2 till fade out


Chorus 2 
e|----------------------------------------------------|
B|----------------------------------------------------|
G|----------------------------------------------------|
D|--1---8--7--5--3--5--1/3--3---10-8--7--5--7--3/5----|
A|--1-----------------------3-------------------------|
E|--1-0--0--0--0--0---------3-0---0--0--0-------------
      x  x  x  x  x           x   x  x  x
 
e|------------------------------------------|
B|------------------------------------------|
G|------------------------------------------|
D|---------8--------8--------8--8-0-3-00-1--|
A|--5--7-7---5--7-7---8--7-7----8-0-3-00-1--|
E|--5--------5--------8---------8-0-3-00-1--|
       x x      x x      x x      x   xx



| /  slide up
| \  slide down
| h  hammer-on
| p  pull-off
| ~  vibrato
| +  harmonic
| x  Mute note
=============================================================================
Comments